 PTC IGES file: 156803.igs                                              S      1
1H,,1H;,9H156803_SW,10H156803.igs,                                      G      1
49HPro/ENGINEER by Parametric Technology Corporation,7H2009141,32,38,7, G      2
38,15,9H156803_SW,1.,1,4HINCH,32768,0.5,15H20111006.110049,0.000257887, G      3
2.57897,13Hbanengservice,7HUnknown,10,0,15H20111006.110049;             G      4
     314       1       1       1       0       0       0       001000200D      1
     314       0       4       1       0                   COLOR       1D      2
     314       2       1       1       0       0       0       001000200D      3
     314       0       1       1       0                   COLOR       2D      4
     314       3       1       1       0       0       0       001000200D      5
     314       0       1       1       0                   COLOR       3D      6
     314       4       1       1       0       0       0       001000200D      7
     314       0       1       1       0                   COLOR       4D      8
     314       5       1       1       0       0       0       001000200D      9
     314       0       8       1       0                   COLOR       5D     10
     314       6       1       1       0       0       0       001000200D     11
     314       0       8       1       0                   COLOR       6D     12
     314       7       1       1       0       0       0       001000200D     13
     314       0       5       1       0                   COLOR       7D     14
     314       8       1       1       0       0       0       001000200D     15
     314       0       8       1       0                   COLOR       8D     16
     124       9       1       1       0       0       0       001000000D     17
     124       0       0       1       0                   XFORM       1D     18
     100      10       1       1       0       0      17       001010000D     19
     100       0       0       1       0                     ARC       1D     20
     110      11       1       1       0       0       0       001010000D     21
     110       0       0       2       0                    LINE       1D     22
     124      13       1       1       0       0       0       001000000D     23
     124       0       0       1       0                   XFORM       2D     24
     100      14       1       1       0       0      23       001010000D     25
     100       0       0       1       0                     ARC       2D     26
     110      15       1       1       0       0       0       001010000D     27
     110       0       0       2       0                    LINE       2D     28
     124      17       1       1       0       0       0       001000000D     29
     124       0       0       2       0                   XFORM       3D     30
     100      19       1       1       0       0      29       001010000D     31
     100       0       0       1       0                     ARC       3D     32
     124      20       1       1       0       0       0       001000000D     33
     124       0       0       2       0                   XFORM       4D     34
     100      22       1       1       0       0      33       001010000D     35
     100       0       0       1       0                     ARC       4D     36
     124      23       1       1       0       0       0       001000000D     37
     124       0       0       2       0                   XFORM       5D     38
     100      25       1       1       0       0      37       001010000D     39
     100       0       0       1       0                     ARC       5D     40
     110      26       1       1       0       0       0       001010000D     41
     110       0       0       2       0                    LINE       3D     42
     124      28       1       1       0       0       0       001000000D     43
     124       0       0       2       0                   XFORM       6D     44
     100      30       1       1       0       0      43       001010000D     45
     100       0       0       1       0                     ARC       6D     46
     110      31       1       1       0       0       0       001010000D     47
     110       0       0       2       0                    LINE       4D     48
     124      33       1       1       0       0       0       001000000D     49
     124       0       0       2       0                   XFORM       7D     50
     100      35       1       1       0       0      49       001010000D     51
     100       0       0       1       0                     ARC       7D     52
     124      36       1       1       0       0       0       001000000D     53
     124       0       0       2       0                   XFORM       8D     54
     100      38       1       1       0       0      53       001010000D     55
     100       0       0       1       0                     ARC       8D     56
     124      39       1       1       0       0       0       001000000D     57
     124       0       0       2       0                   XFORM       9D     58
     100      41       1       1       0       0      57       001010000D     59
     100       0       0       1       0                     ARC       9D     60
     124      42       1       1       0       0       0       001000000D     61
     124       0       0       2       0                   XFORM      10D     62
     100      44       1       1       0       0      61       001010000D     63
     100       0       0       1       0                     ARC      10D     64
     110      45       1       1       0       0       0       001010000D     65
     110       0       0       2       0                    LINE       5D     66
     110      47       1       1       0       0       0       001010000D     67
     110       0       0       2       0                    LINE       6D     68
     124      49       1       1       0       0       0       001000000D     69
     124       0       0       2       0                   XFORM      11D     70
     100      51       1       1       0       0      69       001010000D     71
     100       0       0       1       0                     ARC      11D     72
     124      52       1       1       0       0       0       001000000D     73
     124       0       0       2       0                   XFORM      12D     74
     100      54       1       1       0       0      73       001010000D     75
     100       0       0       1       0                     ARC      12D     76
     502      55       1       1       0       0       0       001010000D     77
     502       0       0       8       1                  VERTEX       1D     78
     504      63       1       1       0       0       0       000010001D     79
     504       0       0       4       1                    EDGE       1D     80
     110      67       1       1       0       0       0       001010000D     81
     110       0      -9       1       0                    LINE       7D     82
     110      68       1       1       0       0       0       001010000D     83
     110       0      -9       2       0                    LINE       8D     84
     120      70       1       1       0       0       0       001010000D     85
     120       0      -9       1       0                    SREV       1D     86
     508      71       1       1       0       0       0       001010000D     87
     508       0       0       1       1                EDGELOOP       1D     88
     510      72       1       1       0       0       0       000010000D     89
     510       0      -9       1       1                    FACE       1D     90
     110      73       1       1       0       0       0       001010000D     91
     110       0      -9       1       0                    LINE       9D     92
     110      74       1       1       0       0       0       001010000D     93
     110       0      -9       2       0                    LINE      10D     94
     120      76       1       1       0       0       0       001010000D     95
     120       0      -9       1       0                    SREV       2D     96
     508      77       1       1       0       0       0       001010000D     97
     508       0       0       1       1                EDGELOOP       2D     98
     510      78       1       1       0       0       0       000010000D     99
     510       0      -9       1       1                    FACE       2D    100
     128      79       1       1       0       0       0       001010000D    101
     128       0      -9       8       0                  SPLSRF       1D    102
     508      87       1       1       0       0       0       001010000D    103
     508       0       0       1       1                EDGELOOP       3D    104
     510      88       1       1       0       0       0       000010000D    105
     510       0      -9       1       1                    FACE       3D    106
     128      89       1       1       0       0       0       001010000D    107
     128       0      -9       9       0                  SPLSRF       2D    108
     508      98       1       1       0       0       0       001010000D    109
     508       0       0       1       1                EDGELOOP       4D    110
     508      99       1       1       0       0       0       001010000D    111
     508       0       0       1       1                EDGELOOP       5D    112
     510     100       1       1       0       0       0       000010000D    113
     510       0      -9       1       1                    FACE       4D    114
     110     101       1       1       0       0       0       001010000D    115
     110       0      -9       1       0                    LINE      11D    116
     110     102       1       1       0       0       0       001010000D    117
     110       0      -9       2       0                    LINE      12D    118
     120     104       1       1       0       0       0       001010000D    119
     120       0      -9       1       0                    SREV       3D    120
     508     105       1       1       0       0       0       001010000D    121
     508       0       0       1       1                EDGELOOP       6D    122
     510     106       1       1       0       0       0       000010000D    123
     510       0      -9       1       1                    FACE       5D    124
     110     107       1       1       0       0       0       001010000D    125
     110       0      -9       1       0                    LINE      13D    126
     110     108       1       1       0       0       0       001010000D    127
     110       0      -9       2       0                    LINE      14D    128
     120     110       1       1       0       0       0       001010000D    129
     120       0      -9       1       0                    SREV       4D    130
     508     111       1       1       0       0       0       001010000D    131
     508       0       0       1       1                EDGELOOP       7D    132
     510     112       1       1       0       0       0       000010000D    133
     510       0      -9       1       1                    FACE       6D    134
     128     113       1       1       0       0       0       001010000D    135
     128       0      -9       9       0                  SPLSRF       3D    136
     508     122       1       1       0       0       0       001010000D    137
     508       0       0       1       1                EDGELOOP       8D    138
     508     123       1       1       0       0       0       001010000D    139
     508       0       0       1       1                EDGELOOP       9D    140
     510     124       1       1       0       0       0       000010000D    141
     510       0      -9       1       1                    FACE       7D    142
     110     125       1       1       0       0       0       001010000D    143
     110       0      -9       1       0                    LINE      15D    144
     110     126       1       1       0       0       0       001010000D    145
     110       0      -9       2       0                    LINE      16D    146
     120     128       1       1       0       0       0       001010000D    147
     120       0      -9       1       0                    SREV       5D    148
     508     129       1       1       0       0       0       001010000D    149
     508       0       0       1       1                EDGELOOP      10D    150
     510     130       1       1       0       0       0       000010000D    151
     510       0      -9       1       1                    FACE       8D    152
     110     131       1       1       0       0       0       001010000D    153
     110       0      -9       1       0                    LINE      17D    154
     110     132       1       1       0       0       0       001010000D    155
     110       0      -9       2       0                    LINE      18D    156
     120     134       1       1       0       0       0       001010000D    157
     120       0      -9       1       0                    SREV       6D    158
     508     135       1       1       0       0       0       001010000D    159
     508       0       0       1       1                EDGELOOP      11D    160
     510     136       1       1       0       0       0       000010000D    161
     510       0      -9       1       1                    FACE       9D    162
     128     137       1       1       0       0       0       001010000D    163
     128       0       8       9       0                  SPLSRF       4D    164
     508     146       1       1       0       0       0       001010000D    165
     508       0       0       1       1                EDGELOOP      12D    166
     510     147       1       1       0       0       0       000010000D    167
     510       0       8       1       1                    FACE      10D    168
     514     148       1       1       0       0       0       000010000D    169
     514       0       0       2       1                   SHELL       1D    170
     186     150       1       1       0       0       0       000000000D    171
     186       0       0       1       0                    MSBR       1D    172
314,1.1D0,1.2D0,1D2;                                                   1P      1
314,1.1D1,1.1D1,1.1D1;                                                 3P      2
314,3.92D1,1.2D0,1.2D0;                                                5P      3
314,4.1D1,0D0,2.2D1;                                                   7P      4
314,8.784D1,9.49D1,1D2;                                                9P      5
314,9.6D1,9.6D1,9.6D1;                                                11P      6
314,9.8D1,6.27D1,0D0;                                                 13P      7
314,1D2,1D2,9.49D1;                                                   15P      8
124,0D0,-1D0,0D0,0D0,1D0,0D0,0D0,0D0,0D0,0D0,1D0,0D0;                 17P      9
100,0D0,0D0,0D0,9.055118110236D-1,0D0,-9.055118110236D-1,0D0;         19P     10
110,0D0,9.055118110236D-1,0D0,0D0,9.055118110236D-1,                  21P     11
9.842519685039D-2;                                                    21P     12
124,0D0,1D0,0D0,0D0,1D0,0D0,0D0,0D0,0D0,0D0,-1D0,0D0;                 23P     13
100,0D0,0D0,0D0,9.055118110236D-1,0D0,-9.055118110236D-1,0D0;         25P     14
110,0D0,-9.055118110236D-1,0D0,0D0,-9.055118110236D-1,                27P     15
9.842519685039D-2;                                                    27P     16
124,0D0,1D0,0D0,0D0,1D0,0D0,0D0,0D0,0D0,0D0,-1D0,                     29P     17
9.842519685039D-2;                                                    29P     18
100,0D0,0D0,0D0,9.055118110236D-1,0D0,-9.055118110236D-1,0D0;         31P     19
124,0D0,-1D0,0D0,0D0,1D0,0D0,0D0,0D0,0D0,0D0,1D0,                     33P     20
9.842519685039D-2;                                                    33P     21
100,0D0,0D0,0D0,9.055118110236D-1,0D0,-9.055118110236D-1,0D0;         35P     22
124,0D0,-1D0,0D0,0D0,1D0,0D0,0D0,0D0,0D0,0D0,1D0,                     37P     23
9.842519685039D-2;                                                    37P     24
100,0D0,0D0,0D0,7.874015748031D-1,0D0,-7.874015748031D-1,0D0;         39P     25
110,0D0,7.874015748031D-1,9.842519685039D-2,0D0,                      41P     26
7.874015748031D-1,2.992125984252D-1;                                  41P     27
124,0D0,1D0,0D0,0D0,1D0,0D0,0D0,0D0,0D0,0D0,-1D0,                     43P     28
9.842519685039D-2;                                                    43P     29
100,0D0,0D0,0D0,7.874015748031D-1,0D0,-7.874015748031D-1,0D0;         45P     30
110,0D0,-7.874015748031D-1,9.842519685039D-2,0D0,                     47P     31
-7.874015748031D-1,2.992125984252D-1;                                 47P     32
124,0D0,1D0,0D0,0D0,1D0,0D0,0D0,0D0,0D0,0D0,-1D0,                     49P     33
2.992125984252D-1;                                                    49P     34
100,0D0,0D0,0D0,7.874015748031D-1,0D0,-7.874015748031D-1,0D0;         51P     35
124,0D0,-1D0,0D0,0D0,1D0,0D0,0D0,0D0,0D0,0D0,1D0,                     53P     36
2.992125984252D-1;                                                    53P     37
100,0D0,0D0,0D0,7.874015748031D-1,0D0,-7.874015748031D-1,0D0;         55P     38
124,1D0,0D0,0D0,0D0,0D0,1D0,0D0,0D0,0D0,0D0,1D0,                      57P     39
2.992125984252D-1;                                                    57P     40
100,0D0,0D0,0D0,7.677165354331D-1,0D0,-7.677165354331D-1,0D0;         59P     41
124,-1D0,0D0,0D0,0D0,0D0,-1D0,0D0,0D0,0D0,0D0,1D0,                    61P     42
2.992125984252D-1;                                                    61P     43
100,0D0,0D0,0D0,7.677165354331D-1,0D0,-7.677165354331D-1,0D0;         63P     44
110,7.677165354331D-1,0D0,2.992125984252D-1,7.677165354331D-1,        65P     45
0D0,2.893700787402D-1;                                                65P     46
110,-7.677165354331D-1,0D0,2.992125984252D-1,-7.677165354331D-1,      67P     47
0D0,2.893700787402D-1;                                                67P     48
124,1D0,0D0,0D0,0D0,0D0,1D0,0D0,0D0,0D0,0D0,1D0,                      69P     49
2.893700787402D-1;                                                    69P     50
100,0D0,0D0,0D0,7.677165354331D-1,0D0,-7.677165354331D-1,0D0;         71P     51
124,-1D0,0D0,0D0,0D0,0D0,-1D0,0D0,0D0,0D0,0D0,1D0,                    73P     52
2.893700787402D-1;                                                    73P     53
100,0D0,0D0,0D0,7.677165354331D-1,0D0,-7.677165354331D-1,0D0;         75P     54
502,12,0D0,9.055118110236D-1,0D0,0D0,9.055118110236D-1,               77P     55
9.842519685039D-2,0D0,7.874015748031D-1,9.842519685039D-2,0D0,        77P     56
7.874015748031D-1,2.992125984252D-1,0D0,-9.055118110236D-1,0D0,       77P     57
0D0,-9.055118110236D-1,9.842519685039D-2,0D0,-7.874015748031D-1,      77P     58
9.842519685039D-2,0D0,-7.874015748031D-1,2.992125984252D-1,           77P     59
7.677165354331D-1,0D0,2.893700787402D-1,-7.677165354331D-1,0D0,       77P     60
2.893700787402D-1,7.677165354331D-1,0D0,2.992125984252D-1,            77P     61
-7.677165354331D-1,0D0,2.992125984252D-1;                             77P     62
504,18,21,77,1,77,2,41,77,3,77,4,27,77,5,77,6,47,77,7,77,8,19,        79P     63
77,1,77,5,35,77,2,77,6,39,77,3,77,7,55,77,4,77,8,25,77,1,77,5,        79P     64
31,77,2,77,6,45,77,3,77,7,51,77,4,77,8,71,77,9,77,10,75,77,10,        79P     65
77,9,59,77,11,77,12,63,77,12,77,11,65,77,11,77,9,67,77,12,77,10;      79P     66
110,0D0,0D0,-1.496062992126D-2,0D0,0D0,9.850393700787D-1;             81P     67
110,0D0,9.055118110236D-1,-3.094769559439D-3,0D0,                     83P     68
9.055118110236D-1,1.015199664098D-1;                                  83P     69
120,81,83,-6.283185307180D-2,3.204424506662D0;                        85P     70
508,4,0,79,1,1,0,0,79,6,1,0,0,79,3,0,0,0,79,5,0,0;                    87P     71
510,85,1,0,87;                                                        89P     72
110,0D0,0D0,-1.496062992126D-2,0D0,0D0,9.850393700787D-1;             91P     73
110,0D0,9.055118110236D-1,-3.094769559439D-3,0D0,                     93P     74
9.055118110236D-1,1.015199664098D-1;                                  93P     75
120,91,93,-3.204424506662D0,6.283185307180D-2;                        95P     76
508,4,0,79,1,0,0,0,79,9,1,0,0,79,3,1,0,0,79,10,0,0;                   97P     77
510,95,1,0,97;                                                        99P     78
128,1,1,1,1,0,0,1,0,0,-9.417322834646D-1,-9.417322834646D-1,         101P     79
9.417322834646D-1,9.417322834646D-1,-9.423812277458D-1,              101P     80
-9.423812277458D-1,9.423812277458D-1,9.423812277458D-1,1D0,1D0,      101P     81
1D0,1D0,9.423812277458D-1,-9.417322834646D-1,0D0,                    101P     82
9.423812277458D-1,9.417322834646D-1,0D0,-9.423812277458D-1,          101P     83
-9.417322834646D-1,0D0,-9.423812277458D-1,9.417322834646D-1,0D0,     101P     84
-9.417322834646D-1,9.417322834646D-1,-9.423812277458D-1,             101P     85
9.423812277458D-1;                                                   101P     86
508,2,0,79,9,0,0,0,79,5,1,0;                                         103P     87
510,101,1,0,103;                                                     105P     88
128,1,1,1,1,0,0,1,0,0,-9.417322834646D-1,-9.417322834646D-1,         107P     89
9.417322834646D-1,9.417322834646D-1,-9.423812277458D-1,              107P     90
-9.423812277458D-1,9.423812277458D-1,9.423812277458D-1,1D0,1D0,      107P     91
1D0,1D0,9.423812277458D-1,-9.417322834646D-1,9.842519685039D-2,      107P     92
9.423812277458D-1,9.417322834646D-1,9.842519685039D-2,               107P     93
-9.423812277458D-1,-9.417322834646D-1,9.842519685039D-2,             107P     94
-9.423812277458D-1,9.417322834646D-1,9.842519685039D-2,              107P     95
-9.417322834646D-1,9.417322834646D-1,-9.423812277458D-1,             107P     96
9.423812277458D-1;                                                   107P     97
508,2,0,79,10,1,0,0,79,6,0,0;                                        109P     98
508,2,0,79,7,1,0,0,79,11,0,0;                                        111P     99
510,107,2,0,109,111;                                                 113P    100
110,0D0,0D0,-1.496062992126D-2,0D0,0D0,9.850393700787D-1;            115P    101
110,0D0,7.874015748031D-1,9.440944881890D-2,0D0,                     117P    102
7.874015748031D-1,3.032283464567D-1;                                 117P    103
120,115,117,-6.283185307180D-2,3.204424506662D0;                     119P    104
508,4,0,79,2,1,0,0,79,8,1,0,0,79,4,0,0,0,79,7,0,0;                   121P    105
510,119,1,0,121;                                                     123P    106
110,0D0,0D0,-1.496062992126D-2,0D0,0D0,9.850393700787D-1;            125P    107
110,0D0,7.874015748031D-1,9.440944881890D-2,0D0,                     127P    108
7.874015748031D-1,3.032283464567D-1;                                 127P    109
120,125,127,-3.204424506662D0,6.283185307180D-2;                     129P    110
508,4,0,79,2,0,0,0,79,11,1,0,0,79,4,1,0,0,79,12,0,0;                 131P    111
510,129,1,0,131;                                                     133P    112
128,1,1,1,1,0,0,1,0,0,-8.188976377953D-1,-8.188976377953D-1,         135P    113
8.188976377953D-1,8.188976377953D-1,-8.188976377953D-1,              135P    114
-8.188976377953D-1,8.188976377953D-1,8.188976377953D-1,1D0,1D0,      135P    115
1D0,1D0,8.188976377953D-1,-8.188976377953D-1,2.992125984252D-1,      135P    116
8.188976377953D-1,8.188976377953D-1,2.992125984252D-1,               135P    117
-8.188976377953D-1,-8.188976377953D-1,2.992125984252D-1,             135P    118
-8.188976377953D-1,8.188976377953D-1,2.992125984252D-1,              135P    119
-8.188976377953D-1,8.188976377953D-1,-8.188976377953D-1,             135P    120
8.188976377953D-1;                                                   135P    121
508,2,0,79,12,1,0,0,79,8,0,0;                                        137P    122
508,2,0,79,15,1,0,0,79,16,1,0;                                       139P    123
510,135,2,0,137,139;                                                 141P    124
110,0D0,0D0,2.992125984252D-1,0D0,0D0,1.299212598425D0;              143P    125
110,7.677165354331D-1,0D0,2.862753091807D-1,7.677165354331D-1,       145P    126
0D0,3.023073679846D-1;                                               145P    127
120,143,145,-6.283185307180D-2,3.204424506662D0;                     147P    128
508,4,0,79,15,0,0,0,79,17,1,0,0,79,13,1,0,0,79,18,0,0;               149P    129
510,147,1,0,149;                                                     151P    130
110,0D0,0D0,2.992125984252D-1,0D0,0D0,1.299212598425D0;              153P    131
110,7.677165354331D-1,0D0,2.862753091807D-1,7.677165354331D-1,       155P    132
0D0,3.023073679846D-1;                                               155P    133
120,153,155,3.078760800518D0,6.346017160251D0;                       157P    134
508,4,0,79,16,0,0,0,79,18,1,0,0,79,14,1,0,0,79,17,0,0;               159P    135
510,157,1,0,159;                                                     161P    136
128,1,1,1,1,0,0,1,0,0,-7.984251968504D-1,-7.984251968504D-1,         163P    137
7.984251968504D-1,7.984251968504D-1,-7.984251968504D-1,              163P    138
-7.984251968504D-1,7.984251968504D-1,7.984251968504D-1,1D0,1D0,      163P    139
1D0,1D0,-7.984251968504D-1,-7.984251968504D-1,2.893700787402D-1,     163P    140
7.984251968504D-1,-7.984251968504D-1,2.893700787402D-1,              163P    141
-7.984251968504D-1,7.984251968504D-1,2.893700787402D-1,              163P    142
7.984251968504D-1,7.984251968504D-1,2.893700787402D-1,               163P    143
-7.984251968504D-1,7.984251968504D-1,-7.984251968504D-1,             163P    144
7.984251968504D-1;                                                   163P    145
508,2,0,79,13,0,0,0,79,14,0,0;                                       165P    146
510,163,1,0,165;                                                     167P    147
514,10,89,1,99,1,105,0,113,1,123,1,133,1,141,1,151,0,161,0,167,      169P    148
1;                                                                   169P    149
186,169,1,0;                                                         171P    150
S      1G      4D    172P    150                                        T      1
