ISO-10303-21;
HEADER;
FILE_DESCRIPTION((''),'2;1');
FILE_NAME('156802_SW','2011-10-06T',('banengservice'),('BANNER ENGINEERING'),
'PRO/ENGINEER BY PARAMETRIC TECHNOLOGY CORPORATION, 2009141',
'PRO/ENGINEER BY PARAMETRIC TECHNOLOGY CORPORATION, 2009141','');
FILE_SCHEMA(('CONFIG_CONTROL_DESIGN'));
ENDSEC;
DATA;
#1=CARTESIAN_POINT('',(0.E0,0.E0,1.0827E-1));
#2=DIRECTION('',(0.E0,0.E0,1.E0));
#3=DIRECTION('',(-1.E0,0.E0,0.E0));
#4=AXIS2_PLACEMENT_3D('',#1,#2,#3);
#6=CARTESIAN_POINT('',(0.E0,0.E0,1.0827E-1));
#7=DIRECTION('',(0.E0,0.E0,1.E0));
#8=DIRECTION('',(1.E0,0.E0,0.E0));
#9=AXIS2_PLACEMENT_3D('',#6,#7,#8);
#11=DIRECTION('',(-8.660255262463E-1,2.743839153512E-10,-4.999997878898E-1));
#12=VECTOR('',#11,2.309401076786E-2);
#13=CARTESIAN_POINT('',(-4.524999869570E-1,-2.922138614713E-11,
1.082699774115E-1));
#14=LINE('',#13,#12);
#15=DIRECTION('',(8.660255262463E-1,-2.743951106548E-10,-4.999997878898E-1));
#16=VECTOR('',#15,2.309401076786E-2);
#17=CARTESIAN_POINT('',(4.524999869570E-1,2.922178857098E-11,
1.082699774115E-1));
#18=LINE('',#17,#16);
#19=CARTESIAN_POINT('',(0.E0,0.E0,9.672294744109E-2));
#20=DIRECTION('',(0.E0,0.E0,1.E0));
#21=DIRECTION('',(1.E0,0.E0,0.E0));
#22=AXIS2_PLACEMENT_3D('',#19,#20,#21);
#24=CARTESIAN_POINT('',(0.E0,0.E0,0.E0));
#25=DIRECTION('',(0.E0,0.E0,1.E0));
#26=DIRECTION('',(1.E0,0.E0,0.E0));
#27=AXIS2_PLACEMENT_3D('',#24,#25,#26);
#29=DIRECTION('',(-1.056065196365E-7,2.366031683757E-10,1.E0));
#30=VECTOR('',#29,9.672297692604E-2);
#31=CARTESIAN_POINT('',(4.725E-1,0.E0,0.E0));
#32=LINE('',#31,#30);
#33=CARTESIAN_POINT('',(0.E0,0.E0,9.672294744109E-2));
#34=DIRECTION('',(0.E0,0.E0,1.E0));
#35=DIRECTION('',(-1.E0,0.E0,0.E0));
#36=AXIS2_PLACEMENT_3D('',#33,#34,#35);
#38=CARTESIAN_POINT('',(0.E0,0.E0,0.E0));
#39=DIRECTION('',(0.E0,0.E0,1.E0));
#40=DIRECTION('',(-1.E0,0.E0,0.E0));
#41=AXIS2_PLACEMENT_3D('',#38,#39,#40);
#43=DIRECTION('',(1.056065225061E-7,-2.366016808348E-10,1.E0));
#44=VECTOR('',#43,9.672297692604E-2);
#45=CARTESIAN_POINT('',(-4.725E-1,0.E0,0.E0));
#46=LINE('',#45,#44);
#47=CARTESIAN_POINT('',(0.E0,0.E0,0.E0));
#48=DIRECTION('',(0.E0,0.E0,-1.E0));
#49=DIRECTION('',(-1.E0,0.E0,0.E0));
#50=AXIS2_PLACEMENT_3D('',#47,#48,#49);
#52=CARTESIAN_POINT('',(0.E0,0.E0,0.E0));
#53=DIRECTION('',(0.E0,0.E0,-1.E0));
#54=DIRECTION('',(1.E0,0.E0,0.E0));
#55=AXIS2_PLACEMENT_3D('',#52,#53,#54);
#57=DIRECTION('',(0.E0,0.E0,-1.E0));
#58=VECTOR('',#57,1.0827E-1);
#59=CARTESIAN_POINT('',(-4.92E-1,0.E0,0.E0));
#60=LINE('',#59,#58);
#61=DIRECTION('',(0.E0,0.E0,-1.E0));
#62=VECTOR('',#61,1.0827E-1);
#63=CARTESIAN_POINT('',(4.92E-1,0.E0,0.E0));
#64=LINE('',#63,#62);
#65=CARTESIAN_POINT('',(0.E0,0.E0,-1.0827E-1));
#66=DIRECTION('',(0.E0,0.E0,-1.E0));
#67=DIRECTION('',(-1.E0,0.E0,0.E0));
#68=AXIS2_PLACEMENT_3D('',#65,#66,#67);
#70=CARTESIAN_POINT('',(0.E0,0.E0,-1.0827E-1));
#71=DIRECTION('',(0.E0,0.E0,-1.E0));
#72=DIRECTION('',(1.E0,0.E0,0.E0));
#73=AXIS2_PLACEMENT_3D('',#70,#71,#72);
#75=CARTESIAN_POINT('',(-4.92E-1,0.E0,0.E0));
#76=CARTESIAN_POINT('',(4.92E-1,0.E0,0.E0));
#77=VERTEX_POINT('',#75);
#78=VERTEX_POINT('',#76);
#79=CARTESIAN_POINT('',(-4.92E-1,0.E0,-1.0827E-1));
#80=CARTESIAN_POINT('',(4.92E-1,0.E0,-1.0827E-1));
#81=VERTEX_POINT('',#79);
#82=VERTEX_POINT('',#80);
#83=CARTESIAN_POINT('',(4.725E-1,0.E0,0.E0));
#84=CARTESIAN_POINT('',(-4.725E-1,0.E0,0.E0));
#85=VERTEX_POINT('',#83);
#86=VERTEX_POINT('',#84);
#87=CARTESIAN_POINT('',(-4.524999217489E-1,0.E0,1.0827E-1));
#88=CARTESIAN_POINT('',(4.524999217489E-1,0.E0,1.0827E-1));
#89=VERTEX_POINT('',#87);
#90=VERTEX_POINT('',#88);
#91=CARTESIAN_POINT('',(-4.725E-1,0.E0,9.672294744109E-2));
#92=CARTESIAN_POINT('',(4.725E-1,0.E0,9.672294744109E-2));
#93=VERTEX_POINT('',#91);
#94=VERTEX_POINT('',#92);
#95=CARTESIAN_POINT('',(0.E0,0.E0,1.0827E-1));
#96=DIRECTION('',(0.E0,0.E0,1.E0));
#97=DIRECTION('',(1.E0,0.E0,0.E0));
#98=AXIS2_PLACEMENT_3D('',#95,#96,#97);
#99=PLANE('',#98);
#101=ORIENTED_EDGE('',*,*,#100,.F.);
#103=ORIENTED_EDGE('',*,*,#102,.F.);
#104=EDGE_LOOP('',(#101,#103));
#105=FACE_OUTER_BOUND('',#104,.F.);
#106=ADVANCED_FACE('',(#105),#99,.T.);
#107=CARTESIAN_POINT('',(0.E0,0.E0,1.024964747840E-1));
#108=DIRECTION('',(0.E0,0.E0,-1.E0));
#109=DIRECTION('',(0.E0,-1.E0,0.E0));
#110=AXIS2_PLACEMENT_3D('',#107,#108,#109);
#111=CONICAL_SURFACE('',#110,4.624999590324E-1,5.999999570963E1);
#112=ORIENTED_EDGE('',*,*,#100,.T.);
#114=ORIENTED_EDGE('',*,*,#113,.T.);
#116=ORIENTED_EDGE('',*,*,#115,.F.);
#118=ORIENTED_EDGE('',*,*,#117,.F.);
#119=EDGE_LOOP('',(#112,#114,#116,#118));
#120=FACE_OUTER_BOUND('',#119,.F.);
#121=ADVANCED_FACE('',(#120),#111,.T.);
#122=CARTESIAN_POINT('',(0.E0,0.E0,1.024964747840E-1));
#123=DIRECTION('',(0.E0,0.E0,-1.E0));
#124=DIRECTION('',(0.E0,-1.E0,0.E0));
#125=AXIS2_PLACEMENT_3D('',#122,#123,#124);
#126=CONICAL_SURFACE('',#125,4.624999590324E-1,5.999999570963E1);
#127=ORIENTED_EDGE('',*,*,#102,.T.);
#128=ORIENTED_EDGE('',*,*,#117,.T.);
#130=ORIENTED_EDGE('',*,*,#129,.F.);
#131=ORIENTED_EDGE('',*,*,#113,.F.);
#132=EDGE_LOOP('',(#127,#128,#130,#131));
#133=FACE_OUTER_BOUND('',#132,.F.);
#134=ADVANCED_FACE('',(#133),#126,.T.);
#135=CARTESIAN_POINT('',(0.E0,0.E0,0.E0));
#136=DIRECTION('',(0.E0,0.E0,1.E0));
#137=DIRECTION('',(1.E0,0.E0,0.E0));
#138=AXIS2_PLACEMENT_3D('',#135,#136,#137);
#139=CYLINDRICAL_SURFACE('',#138,4.725E-1);
#140=ORIENTED_EDGE('',*,*,#129,.T.);
#142=ORIENTED_EDGE('',*,*,#141,.F.);
#144=ORIENTED_EDGE('',*,*,#143,.F.);
#146=ORIENTED_EDGE('',*,*,#145,.T.);
#147=EDGE_LOOP('',(#140,#142,#144,#146));
#148=FACE_OUTER_BOUND('',#147,.F.);
#149=ADVANCED_FACE('',(#148),#139,.T.);
#150=CARTESIAN_POINT('',(0.E0,0.E0,0.E0));
#151=DIRECTION('',(0.E0,0.E0,1.E0));
#152=DIRECTION('',(1.E0,0.E0,0.E0));
#153=AXIS2_PLACEMENT_3D('',#150,#151,#152);
#154=CYLINDRICAL_SURFACE('',#153,4.725E-1);
#155=ORIENTED_EDGE('',*,*,#115,.T.);
#156=ORIENTED_EDGE('',*,*,#145,.F.);
#158=ORIENTED_EDGE('',*,*,#157,.F.);
#159=ORIENTED_EDGE('',*,*,#141,.T.);
#160=EDGE_LOOP('',(#155,#156,#158,#159));
#161=FACE_OUTER_BOUND('',#160,.F.);
#162=ADVANCED_FACE('',(#161),#154,.T.);
#163=CARTESIAN_POINT('',(0.E0,0.E0,0.E0));
#164=DIRECTION('',(0.E0,0.E0,-1.E0));
#165=DIRECTION('',(-1.E0,0.E0,0.E0));
#166=AXIS2_PLACEMENT_3D('',#163,#164,#165);
#167=PLANE('',#166);
#169=ORIENTED_EDGE('',*,*,#168,.T.);
#171=ORIENTED_EDGE('',*,*,#170,.T.);
#172=EDGE_LOOP('',(#169,#171));
#173=FACE_OUTER_BOUND('',#172,.F.);
#174=ORIENTED_EDGE('',*,*,#143,.T.);
#175=ORIENTED_EDGE('',*,*,#157,.T.);
#176=EDGE_LOOP('',(#174,#175));
#177=FACE_BOUND('',#176,.F.);
#178=ADVANCED_FACE('',(#173,#177),#167,.F.);
#179=CARTESIAN_POINT('',(0.E0,0.E0,0.E0));
#180=DIRECTION('',(0.E0,0.E0,-1.E0));
#181=DIRECTION('',(-1.E0,0.E0,0.E0));
#182=AXIS2_PLACEMENT_3D('',#179,#180,#181);
#183=CYLINDRICAL_SURFACE('',#182,4.92E-1);
#184=ORIENTED_EDGE('',*,*,#168,.F.);
#186=ORIENTED_EDGE('',*,*,#185,.T.);
#188=ORIENTED_EDGE('',*,*,#187,.T.);
#190=ORIENTED_EDGE('',*,*,#189,.F.);
#191=EDGE_LOOP('',(#184,#186,#188,#190));
#192=FACE_OUTER_BOUND('',#191,.F.);
#193=ADVANCED_FACE('',(#192),#183,.T.);
#194=CARTESIAN_POINT('',(0.E0,0.E0,0.E0));
#195=DIRECTION('',(0.E0,0.E0,-1.E0));
#196=DIRECTION('',(-1.E0,0.E0,0.E0));
#197=AXIS2_PLACEMENT_3D('',#194,#195,#196);
#198=CYLINDRICAL_SURFACE('',#197,4.92E-1);
#199=ORIENTED_EDGE('',*,*,#170,.F.);
#200=ORIENTED_EDGE('',*,*,#189,.T.);
#202=ORIENTED_EDGE('',*,*,#201,.T.);
#203=ORIENTED_EDGE('',*,*,#185,.F.);
#204=EDGE_LOOP('',(#199,#200,#202,#203));
#205=FACE_OUTER_BOUND('',#204,.F.);
#206=ADVANCED_FACE('',(#205),#198,.T.);
#207=CARTESIAN_POINT('',(0.E0,0.E0,-1.0827E-1));
#208=DIRECTION('',(0.E0,0.E0,-1.E0));
#209=DIRECTION('',(-1.E0,0.E0,0.E0));
#210=AXIS2_PLACEMENT_3D('',#207,#208,#209);
#211=PLANE('',#210);
#212=ORIENTED_EDGE('',*,*,#187,.F.);
#213=ORIENTED_EDGE('',*,*,#201,.F.);
#214=EDGE_LOOP('',(#212,#213));
#215=FACE_OUTER_BOUND('',#214,.F.);
#216=ADVANCED_FACE('',(#215),#211,.T.);
#217=CLOSED_SHELL('',(#106,#121,#134,#149,#162,#178,#193,#206,#216));
#218=MANIFOLD_SOLID_BREP('',#217);
#219=DIMENSIONAL_EXPONENTS(1.E0,0.E0,0.E0,0.E0,0.E0,0.E0,0.E0);
#220=(LENGTH_UNIT()NAMED_UNIT(*)SI_UNIT(.MILLI.,.METRE.));
#221=LENGTH_MEASURE_WITH_UNIT(LENGTH_MEASURE(2.54E1),#220);
#222=(CONVERSION_BASED_UNIT('INCH',#221)LENGTH_UNIT()NAMED_UNIT(#219));
#223=DIMENSIONAL_EXPONENTS(0.E0,0.E0,0.E0,0.E0,0.E0,0.E0,0.E0);
#224=(NAMED_UNIT(*)PLANE_ANGLE_UNIT()SI_UNIT($,.RADIAN.));
#225=PLANE_ANGLE_MEASURE_WITH_UNIT(PLANE_ANGLE_MEASURE(1.745329251994E-2),#224);
#226=(CONVERSION_BASED_UNIT('DEGREE',#225)NAMED_UNIT(#223)PLANE_ANGLE_UNIT());
#227=(NAMED_UNIT(*)SI_UNIT($,.STERADIAN.)SOLID_ANGLE_UNIT());
#228=UNCERTAINTY_MEASURE_WITH_UNIT(LENGTH_MEASURE(1.408276604714E-4),#222,
'closure',
'Maximum model space distance between geometric entities at asserted connectivities');
#229=(GEOMETRIC_REPRESENTATION_CONTEXT(3)GLOBAL_UNCERTAINTY_ASSIGNED_CONTEXT((
#228))GLOBAL_UNIT_ASSIGNED_CONTEXT((#222,#226,#227))REPRESENTATION_CONTEXT
('ID1','3'));
#231=APPLICATION_CONTEXT(
'CONFIGURATION CONTROLLED 3D DESIGNS OF MECHANICAL PARTS AND ASSEMBLIES');
#232=APPLICATION_PROTOCOL_DEFINITION('international standard',
'config_control_design',1994,#231);
#233=DESIGN_CONTEXT('',#231,'design');
#234=MECHANICAL_CONTEXT('',#231,'mechanical');
#235=PRODUCT('156802_SW','156802_SW','NOT SPECIFIED',(#234));
#236=PRODUCT_DEFINITION_FORMATION_WITH_SPECIFIED_SOURCE('','LAST_VERSION',#235,
.MADE.);
#240=PRODUCT_CATEGORY('part','');
#241=PRODUCT_RELATED_PRODUCT_CATEGORY('detail','',(#235));
#242=PRODUCT_CATEGORY_RELATIONSHIP('','',#240,#241);
#243=SECURITY_CLASSIFICATION_LEVEL('unclassified');
#244=SECURITY_CLASSIFICATION('','',#243);
#245=CC_DESIGN_SECURITY_CLASSIFICATION(#244,(#236));
#246=APPROVAL_STATUS('approved');
#247=APPROVAL(#246,'');
#248=CC_DESIGN_APPROVAL(#247,(#244,#236,#237));
#249=CALENDAR_DATE(111,6,10);
#250=COORDINATED_UNIVERSAL_TIME_OFFSET(5,0,.BEHIND.);
#251=LOCAL_TIME(11,0,2.E1,#250);
#252=DATE_AND_TIME(#249,#251);
#253=APPROVAL_DATE_TIME(#252,#247);
#254=DATE_TIME_ROLE('creation_date');
#255=CC_DESIGN_DATE_AND_TIME_ASSIGNMENT(#252,#254,(#237));
#256=DATE_TIME_ROLE('classification_date');
#257=CC_DESIGN_DATE_AND_TIME_ASSIGNMENT(#252,#256,(#244));
#258=PERSON('UNSPECIFIED','UNSPECIFIED',$,$,$,$);
#259=ORGANIZATION('UNSPECIFIED','UNSPECIFIED','UNSPECIFIED');
#260=PERSON_AND_ORGANIZATION(#258,#259);
#261=APPROVAL_ROLE('approver');
#262=APPROVAL_PERSON_ORGANIZATION(#260,#247,#261);
#263=PERSON_AND_ORGANIZATION_ROLE('creator');
#264=CC_DESIGN_PERSON_AND_ORGANIZATION_ASSIGNMENT(#260,#263,(#236,#237));
#265=PERSON_AND_ORGANIZATION_ROLE('design_supplier');
#266=CC_DESIGN_PERSON_AND_ORGANIZATION_ASSIGNMENT(#260,#265,(#236));
#267=PERSON_AND_ORGANIZATION_ROLE('classification_officer');
#268=CC_DESIGN_PERSON_AND_ORGANIZATION_ASSIGNMENT(#260,#267,(#244));
#269=PERSON_AND_ORGANIZATION_ROLE('design_owner');
#270=CC_DESIGN_PERSON_AND_ORGANIZATION_ASSIGNMENT(#260,#269,(#235));
#5=CIRCLE('',#4,4.524999217489E-1);
#10=CIRCLE('',#9,4.524999217489E-1);
#23=CIRCLE('',#22,4.725E-1);
#28=CIRCLE('',#27,4.725E-1);
#37=CIRCLE('',#36,4.725E-1);
#42=CIRCLE('',#41,4.725E-1);
#51=CIRCLE('',#50,4.92E-1);
#56=CIRCLE('',#55,4.92E-1);
#69=CIRCLE('',#68,4.92E-1);
#74=CIRCLE('',#73,4.92E-1);
#100=EDGE_CURVE('',#89,#90,#5,.T.);
#102=EDGE_CURVE('',#90,#89,#10,.T.);
#113=EDGE_CURVE('',#90,#94,#18,.T.);
#115=EDGE_CURVE('',#93,#94,#37,.T.);
#117=EDGE_CURVE('',#89,#93,#14,.T.);
#129=EDGE_CURVE('',#94,#93,#23,.T.);
#141=EDGE_CURVE('',#86,#93,#46,.T.);
#143=EDGE_CURVE('',#85,#86,#28,.T.);
#145=EDGE_CURVE('',#85,#94,#32,.T.);
#157=EDGE_CURVE('',#86,#85,#42,.T.);
#168=EDGE_CURVE('',#77,#78,#51,.T.);
#170=EDGE_CURVE('',#78,#77,#56,.T.);
#185=EDGE_CURVE('',#77,#81,#60,.T.);
#187=EDGE_CURVE('',#81,#82,#69,.T.);
#189=EDGE_CURVE('',#78,#82,#64,.T.);
#201=EDGE_CURVE('',#82,#81,#74,.T.);
#230=ADVANCED_BREP_SHAPE_REPRESENTATION('',(#218),#229);
#237=PRODUCT_DEFINITION('design','',#236,#233);
#238=PRODUCT_DEFINITION_SHAPE('','SHAPE FOR 156802_SW.',#237);
#239=SHAPE_DEFINITION_REPRESENTATION(#238,#230);
ENDSEC;
END-ISO-10303-21;
