ISO-10303-21;
HEADER;
FILE_DESCRIPTION((''),'2;1');
FILE_NAME('156782_SW','2011-10-06T',('banengservice'),('BANNER ENGINEERING'),
'PRO/ENGINEER BY PARAMETRIC TECHNOLOGY CORPORATION, 2009141',
'PRO/ENGINEER BY PARAMETRIC TECHNOLOGY CORPORATION, 2009141','');
FILE_SCHEMA(('CONFIG_CONTROL_DESIGN'));
ENDSEC;
DATA;
#1=CARTESIAN_POINT('',(0.E0,4.07E0,-1.125E0));
#2=DIRECTION('',(1.E0,0.E0,0.E0));
#3=DIRECTION('',(0.E0,0.E0,-1.E0));
#4=AXIS2_PLACEMENT_3D('',#1,#2,#3);
#6=DIRECTION('',(0.E0,1.E0,0.E0));
#7=VECTOR('',#6,3.82E0);
#8=CARTESIAN_POINT('',(0.E0,2.5E-1,-1.375E0));
#9=LINE('',#8,#7);
#10=CARTESIAN_POINT('',(0.E0,2.5E-1,-1.125E0));
#11=DIRECTION('',(1.E0,0.E0,0.E0));
#12=DIRECTION('',(0.E0,-1.E0,0.E0));
#13=AXIS2_PLACEMENT_3D('',#10,#11,#12);
#15=DIRECTION('',(0.E0,0.E0,-1.E0));
#16=VECTOR('',#15,2.25E0);
#17=CARTESIAN_POINT('',(0.E0,0.E0,1.125E0));
#18=LINE('',#17,#16);
#19=CARTESIAN_POINT('',(0.E0,2.5E-1,1.125E0));
#20=DIRECTION('',(1.E0,0.E0,0.E0));
#21=DIRECTION('',(0.E0,0.E0,1.E0));
#22=AXIS2_PLACEMENT_3D('',#19,#20,#21);
#24=DIRECTION('',(0.E0,-1.E0,0.E0));
#25=VECTOR('',#24,3.82E0);
#26=CARTESIAN_POINT('',(0.E0,4.07E0,1.375E0));
#27=LINE('',#26,#25);
#28=CARTESIAN_POINT('',(0.E0,4.07E0,1.125E0));
#29=DIRECTION('',(1.E0,0.E0,0.E0));
#30=DIRECTION('',(0.E0,1.E0,0.E0));
#31=AXIS2_PLACEMENT_3D('',#28,#29,#30);
#33=DIRECTION('',(0.E0,0.E0,1.E0));
#34=VECTOR('',#33,2.25E0);
#35=CARTESIAN_POINT('',(0.E0,4.32E0,-1.125E0));
#36=LINE('',#35,#34);
#37=CARTESIAN_POINT('',(0.E0,3.57E0,0.E0));
#38=DIRECTION('',(1.E0,0.E0,0.E0));
#39=DIRECTION('',(0.E0,0.E0,1.E0));
#40=AXIS2_PLACEMENT_3D('',#37,#38,#39);
#42=CARTESIAN_POINT('',(0.E0,3.57E0,0.E0));
#43=DIRECTION('',(1.E0,0.E0,0.E0));
#44=DIRECTION('',(0.E0,0.E0,-1.E0));
#45=AXIS2_PLACEMENT_3D('',#42,#43,#44);
#47=CARTESIAN_POINT('',(0.E0,2.928932188135E-1,-7.071067811865E-1));
#48=DIRECTION('',(1.E0,0.E0,0.E0));
#49=DIRECTION('',(0.E0,7.071067811866E-1,7.071067811865E-1));
#50=AXIS2_PLACEMENT_3D('',#47,#48,#49);
#52=CARTESIAN_POINT('',(0.E0,1.E0,0.E0));
#53=DIRECTION('',(1.E0,0.E0,0.E0));
#54=DIRECTION('',(0.E0,-7.071067811865E-1,-7.071067811865E-1));
#55=AXIS2_PLACEMENT_3D('',#52,#53,#54);
#57=CARTESIAN_POINT('',(0.E0,1.707106781187E0,-7.071067811865E-1));
#58=DIRECTION('',(1.E0,0.E0,0.E0));
#59=DIRECTION('',(0.E0,7.071067811865E-1,-7.071067811865E-1));
#60=AXIS2_PLACEMENT_3D('',#57,#58,#59);
#62=CARTESIAN_POINT('',(0.E0,1.E0,0.E0));
#63=DIRECTION('',(1.E0,0.E0,0.E0));
#64=DIRECTION('',(0.E0,-7.071067811865E-1,-7.071067811866E-1));
#65=AXIS2_PLACEMENT_3D('',#62,#63,#64);
#67=CARTESIAN_POINT('',(0.E0,1.707106781187E0,7.071067811865E-1));
#68=DIRECTION('',(1.E0,0.E0,0.E0));
#69=DIRECTION('',(0.E0,-7.071067811865E-1,-7.071067811866E-1));
#70=AXIS2_PLACEMENT_3D('',#67,#68,#69);
#72=CARTESIAN_POINT('',(0.E0,1.E0,0.E0));
#73=DIRECTION('',(1.E0,0.E0,0.E0));
#74=DIRECTION('',(0.E0,7.071067811865E-1,7.071067811865E-1));
#75=AXIS2_PLACEMENT_3D('',#72,#73,#74);
#77=CARTESIAN_POINT('',(0.E0,2.928932188135E-1,7.071067811865E-1));
#78=DIRECTION('',(1.E0,0.E0,0.E0));
#79=DIRECTION('',(0.E0,-7.071067811865E-1,7.071067811865E-1));
#80=AXIS2_PLACEMENT_3D('',#77,#78,#79);
#82=CARTESIAN_POINT('',(0.E0,1.E0,0.E0));
#83=DIRECTION('',(1.E0,0.E0,0.E0));
#84=DIRECTION('',(0.E0,7.071067811865E-1,7.071067811865E-1));
#85=AXIS2_PLACEMENT_3D('',#82,#83,#84);
#87=DIRECTION('',(1.E0,0.E0,0.E0));
#88=VECTOR('',#87,1.21E-1);
#89=CARTESIAN_POINT('',(-1.21E-1,4.32E0,-1.125E0));
#90=LINE('',#89,#88);
#91=DIRECTION('',(1.E0,0.E0,0.E0));
#92=VECTOR('',#91,1.21E-1);
#93=CARTESIAN_POINT('',(-1.21E-1,4.32E0,1.125E0));
#94=LINE('',#93,#92);
#95=DIRECTION('',(1.E0,0.E0,0.E0));
#96=VECTOR('',#95,1.21E-1);
#97=CARTESIAN_POINT('',(-1.21E-1,4.07E0,1.375E0));
#98=LINE('',#97,#96);
#99=DIRECTION('',(1.E0,0.E0,0.E0));
#100=VECTOR('',#99,1.21E-1);
#101=CARTESIAN_POINT('',(-1.21E-1,2.5E-1,1.375E0));
#102=LINE('',#101,#100);
#103=DIRECTION('',(1.E0,0.E0,0.E0));
#104=VECTOR('',#103,1.21E-1);
#105=CARTESIAN_POINT('',(-1.21E-1,0.E0,1.125E0));
#106=LINE('',#105,#104);
#107=DIRECTION('',(1.E0,0.E0,0.E0));
#108=VECTOR('',#107,1.21E-1);
#109=CARTESIAN_POINT('',(-1.21E-1,0.E0,-1.125E0));
#110=LINE('',#109,#108);
#111=DIRECTION('',(1.E0,0.E0,0.E0));
#112=VECTOR('',#111,1.21E-1);
#113=CARTESIAN_POINT('',(-1.21E-1,4.07E0,-1.375E0));
#114=LINE('',#113,#112);
#115=DIRECTION('',(1.E0,0.E0,0.E0));
#116=VECTOR('',#115,1.21E-1);
#117=CARTESIAN_POINT('',(-1.21E-1,2.5E-1,-1.375E0));
#118=LINE('',#117,#116);
#119=CARTESIAN_POINT('',(-1.21E-1,4.07E0,-1.125E0));
#120=DIRECTION('',(-1.E0,0.E0,0.E0));
#121=DIRECTION('',(0.E0,1.E0,0.E0));
#122=AXIS2_PLACEMENT_3D('',#119,#120,#121);
#124=DIRECTION('',(0.E0,0.E0,1.E0));
#125=VECTOR('',#124,2.25E0);
#126=CARTESIAN_POINT('',(-1.21E-1,4.32E0,-1.125E0));
#127=LINE('',#126,#125);
#128=CARTESIAN_POINT('',(-1.21E-1,4.07E0,1.125E0));
#129=DIRECTION('',(-1.E0,0.E0,0.E0));
#130=DIRECTION('',(0.E0,0.E0,1.E0));
#131=AXIS2_PLACEMENT_3D('',#128,#129,#130);
#133=DIRECTION('',(0.E0,-1.E0,0.E0));
#134=VECTOR('',#133,3.82E0);
#135=CARTESIAN_POINT('',(-1.21E-1,4.07E0,1.375E0));
#136=LINE('',#135,#134);
#137=CARTESIAN_POINT('',(-1.21E-1,2.5E-1,1.125E0));
#138=DIRECTION('',(-1.E0,0.E0,0.E0));
#139=DIRECTION('',(0.E0,-1.E0,0.E0));
#140=AXIS2_PLACEMENT_3D('',#137,#138,#139);
#142=DIRECTION('',(0.E0,0.E0,-1.E0));
#143=VECTOR('',#142,2.25E0);
#144=CARTESIAN_POINT('',(-1.21E-1,0.E0,1.125E0));
#145=LINE('',#144,#143);
#146=CARTESIAN_POINT('',(-1.21E-1,2.5E-1,-1.125E0));
#147=DIRECTION('',(-1.E0,0.E0,0.E0));
#148=DIRECTION('',(0.E0,0.E0,-1.E0));
#149=AXIS2_PLACEMENT_3D('',#146,#147,#148);
#151=DIRECTION('',(0.E0,1.E0,0.E0));
#152=VECTOR('',#151,3.82E0);
#153=CARTESIAN_POINT('',(-1.21E-1,2.5E-1,-1.375E0));
#154=LINE('',#153,#152);
#155=CARTESIAN_POINT('',(-1.21E-1,3.57E0,0.E0));
#156=DIRECTION('',(1.E0,0.E0,0.E0));
#157=DIRECTION('',(0.E0,0.E0,1.E0));
#158=AXIS2_PLACEMENT_3D('',#155,#156,#157);
#160=CARTESIAN_POINT('',(-1.21E-1,3.57E0,0.E0));
#161=DIRECTION('',(1.E0,0.E0,0.E0));
#162=DIRECTION('',(0.E0,0.E0,-1.E0));
#163=AXIS2_PLACEMENT_3D('',#160,#161,#162);
#165=CARTESIAN_POINT('',(-1.21E-1,1.707106781187E0,7.071067811865E-1));
#166=DIRECTION('',(1.E0,0.E0,0.E0));
#167=DIRECTION('',(0.E0,-7.071067811865E-1,-7.071067811866E-1));
#168=AXIS2_PLACEMENT_3D('',#165,#166,#167);
#170=CARTESIAN_POINT('',(-1.21E-1,1.E0,0.E0));
#171=DIRECTION('',(1.E0,0.E0,0.E0));
#172=DIRECTION('',(0.E0,7.071067811865E-1,7.071067811865E-1));
#173=AXIS2_PLACEMENT_3D('',#170,#171,#172);
#175=CARTESIAN_POINT('',(-1.21E-1,2.928932188135E-1,7.071067811865E-1));
#176=DIRECTION('',(1.E0,0.E0,0.E0));
#177=DIRECTION('',(0.E0,-7.071067811865E-1,7.071067811865E-1));
#178=AXIS2_PLACEMENT_3D('',#175,#176,#177);
#180=CARTESIAN_POINT('',(-1.21E-1,1.E0,0.E0));
#181=DIRECTION('',(1.E0,0.E0,0.E0));
#182=DIRECTION('',(0.E0,7.071067811865E-1,7.071067811865E-1));
#183=AXIS2_PLACEMENT_3D('',#180,#181,#182);
#185=CARTESIAN_POINT('',(-1.21E-1,2.928932188135E-1,-7.071067811865E-1));
#186=DIRECTION('',(1.E0,0.E0,0.E0));
#187=DIRECTION('',(0.E0,7.071067811866E-1,7.071067811865E-1));
#188=AXIS2_PLACEMENT_3D('',#185,#186,#187);
#190=CARTESIAN_POINT('',(-1.21E-1,1.E0,0.E0));
#191=DIRECTION('',(1.E0,0.E0,0.E0));
#192=DIRECTION('',(0.E0,-7.071067811865E-1,-7.071067811866E-1));
#193=AXIS2_PLACEMENT_3D('',#190,#191,#192);
#195=CARTESIAN_POINT('',(-1.21E-1,1.707106781187E0,-7.071067811865E-1));
#196=DIRECTION('',(1.E0,0.E0,0.E0));
#197=DIRECTION('',(0.E0,7.071067811865E-1,-7.071067811865E-1));
#198=AXIS2_PLACEMENT_3D('',#195,#196,#197);
#200=CARTESIAN_POINT('',(-1.21E-1,1.E0,0.E0));
#201=DIRECTION('',(1.E0,0.E0,0.E0));
#202=DIRECTION('',(0.E0,-7.071067811865E-1,-7.071067811865E-1));
#203=AXIS2_PLACEMENT_3D('',#200,#201,#202);
#205=DIRECTION('',(-1.E0,0.E0,0.E0));
#206=VECTOR('',#205,1.21E-1);
#207=CARTESIAN_POINT('',(0.E0,3.57E0,4.2E-1));
#208=LINE('',#207,#206);
#209=DIRECTION('',(-1.E0,0.E0,0.E0));
#210=VECTOR('',#209,1.21E-1);
#211=CARTESIAN_POINT('',(0.E0,3.57E0,-4.2E-1));
#212=LINE('',#211,#210);
#213=DIRECTION('',(-1.E0,0.E0,0.E0));
#214=VECTOR('',#213,1.21E-1);
#215=CARTESIAN_POINT('',(0.E0,1.607758278430E0,6.077582784298E-1));
#216=LINE('',#215,#214);
#217=DIRECTION('',(-1.E0,0.E0,0.E0));
#218=VECTOR('',#217,1.21E-1);
#219=CARTESIAN_POINT('',(0.E0,3.922417215702E-1,6.077582784298E-1));
#220=LINE('',#219,#218);
#221=DIRECTION('',(-1.E0,0.E0,0.E0));
#222=VECTOR('',#221,1.21E-1);
#223=CARTESIAN_POINT('',(0.E0,1.935447160567E-1,8.064552839433E-1));
#224=LINE('',#223,#222);
#225=DIRECTION('',(-1.E0,0.E0,0.E0));
#226=VECTOR('',#225,1.21E-1);
#227=CARTESIAN_POINT('',(0.E0,1.806455283943E0,8.064552839433E-1));
#228=LINE('',#227,#226);
#229=DIRECTION('',(-1.E0,0.E0,0.E0));
#230=VECTOR('',#229,1.21E-1);
#231=CARTESIAN_POINT('',(0.E0,3.922417215702E-1,-6.077582784298E-1));
#232=LINE('',#231,#230);
#233=DIRECTION('',(-1.E0,0.E0,0.E0));
#234=VECTOR('',#233,1.21E-1);
#235=CARTESIAN_POINT('',(0.E0,1.607758278430E0,-6.077582784298E-1));
#236=LINE('',#235,#234);
#237=DIRECTION('',(-1.E0,0.E0,0.E0));
#238=VECTOR('',#237,1.21E-1);
#239=CARTESIAN_POINT('',(0.E0,1.806455283943E0,-8.064552839433E-1));
#240=LINE('',#239,#238);
#241=DIRECTION('',(-1.E0,0.E0,0.E0));
#242=VECTOR('',#241,1.21E-1);
#243=CARTESIAN_POINT('',(0.E0,1.935447160567E-1,-8.064552839433E-1));
#244=LINE('',#243,#242);
#245=CARTESIAN_POINT('',(0.E0,4.07E0,-1.375E0));
#246=CARTESIAN_POINT('',(0.E0,4.32E0,-1.125E0));
#247=VERTEX_POINT('',#245);
#248=VERTEX_POINT('',#246);
#249=CARTESIAN_POINT('',(-1.21E-1,4.32E0,-1.125E0));
#250=VERTEX_POINT('',#249);
#251=CARTESIAN_POINT('',(-1.21E-1,4.07E0,-1.375E0));
#252=VERTEX_POINT('',#251);
#253=CARTESIAN_POINT('',(0.E0,4.32E0,1.125E0));
#254=CARTESIAN_POINT('',(0.E0,4.07E0,1.375E0));
#255=VERTEX_POINT('',#253);
#256=VERTEX_POINT('',#254);
#257=CARTESIAN_POINT('',(-1.21E-1,4.07E0,1.375E0));
#258=VERTEX_POINT('',#257);
#259=CARTESIAN_POINT('',(-1.21E-1,4.32E0,1.125E0));
#260=VERTEX_POINT('',#259);
#261=CARTESIAN_POINT('',(0.E0,3.57E0,4.2E-1));
#262=CARTESIAN_POINT('',(0.E0,3.57E0,-4.2E-1));
#263=VERTEX_POINT('',#261);
#264=VERTEX_POINT('',#262);
#265=CARTESIAN_POINT('',(-1.21E-1,3.57E0,4.2E-1));
#266=CARTESIAN_POINT('',(-1.21E-1,3.57E0,-4.2E-1));
#267=VERTEX_POINT('',#265);
#268=VERTEX_POINT('',#266);
#269=CARTESIAN_POINT('',(0.E0,2.5E-1,1.375E0));
#270=CARTESIAN_POINT('',(0.E0,0.E0,1.125E0));
#271=VERTEX_POINT('',#269);
#272=VERTEX_POINT('',#270);
#273=CARTESIAN_POINT('',(-1.21E-1,0.E0,1.125E0));
#274=VERTEX_POINT('',#273);
#275=CARTESIAN_POINT('',(-1.21E-1,2.5E-1,1.375E0));
#276=VERTEX_POINT('',#275);
#277=CARTESIAN_POINT('',(0.E0,0.E0,-1.125E0));
#278=CARTESIAN_POINT('',(0.E0,2.5E-1,-1.375E0));
#279=VERTEX_POINT('',#277);
#280=VERTEX_POINT('',#278);
#281=CARTESIAN_POINT('',(-1.21E-1,2.5E-1,-1.375E0));
#282=VERTEX_POINT('',#281);
#283=CARTESIAN_POINT('',(-1.21E-1,0.E0,-1.125E0));
#284=VERTEX_POINT('',#283);
#285=CARTESIAN_POINT('',(0.E0,3.922417215702E-1,-6.077582784298E-1));
#286=CARTESIAN_POINT('',(0.E0,1.935447160567E-1,-8.064552839433E-1));
#287=VERTEX_POINT('',#285);
#288=VERTEX_POINT('',#286);
#289=CARTESIAN_POINT('',(0.E0,1.607758278430E0,-6.077582784298E-1));
#290=VERTEX_POINT('',#289);
#291=CARTESIAN_POINT('',(0.E0,1.806455283943E0,-8.064552839433E-1));
#292=VERTEX_POINT('',#291);
#293=CARTESIAN_POINT('',(0.E0,1.607758278430E0,6.077582784298E-1));
#294=CARTESIAN_POINT('',(0.E0,1.806455283943E0,8.064552839433E-1));
#295=VERTEX_POINT('',#293);
#296=VERTEX_POINT('',#294);
#297=CARTESIAN_POINT('',(0.E0,3.922417215702E-1,6.077582784298E-1));
#298=VERTEX_POINT('',#297);
#299=CARTESIAN_POINT('',(0.E0,1.935447160567E-1,8.064552839433E-1));
#300=VERTEX_POINT('',#299);
#301=CARTESIAN_POINT('',(-1.21E-1,3.922417215702E-1,-6.077582784298E-1));
#302=CARTESIAN_POINT('',(-1.21E-1,1.935447160567E-1,-8.064552839433E-1));
#303=VERTEX_POINT('',#301);
#304=VERTEX_POINT('',#302);
#305=CARTESIAN_POINT('',(-1.21E-1,1.607758278430E0,-6.077582784298E-1));
#306=VERTEX_POINT('',#305);
#307=CARTESIAN_POINT('',(-1.21E-1,1.806455283943E0,-8.064552839433E-1));
#308=VERTEX_POINT('',#307);
#309=CARTESIAN_POINT('',(-1.21E-1,1.607758278430E0,6.077582784298E-1));
#310=CARTESIAN_POINT('',(-1.21E-1,1.806455283943E0,8.064552839433E-1));
#311=VERTEX_POINT('',#309);
#312=VERTEX_POINT('',#310);
#313=CARTESIAN_POINT('',(-1.21E-1,3.922417215702E-1,6.077582784298E-1));
#314=VERTEX_POINT('',#313);
#315=CARTESIAN_POINT('',(-1.21E-1,1.935447160567E-1,8.064552839433E-1));
#316=VERTEX_POINT('',#315);
#317=CARTESIAN_POINT('',(0.E0,0.E0,0.E0));
#318=DIRECTION('',(1.E0,0.E0,0.E0));
#319=DIRECTION('',(0.E0,0.E0,-1.E0));
#320=AXIS2_PLACEMENT_3D('',#317,#318,#319);
#321=PLANE('',#320);
#323=ORIENTED_EDGE('',*,*,#322,.F.);
#325=ORIENTED_EDGE('',*,*,#324,.F.);
#327=ORIENTED_EDGE('',*,*,#326,.F.);
#329=ORIENTED_EDGE('',*,*,#328,.F.);
#331=ORIENTED_EDGE('',*,*,#330,.F.);
#333=ORIENTED_EDGE('',*,*,#332,.F.);
#335=ORIENTED_EDGE('',*,*,#334,.F.);
#337=ORIENTED_EDGE('',*,*,#336,.F.);
#338=EDGE_LOOP('',(#323,#325,#327,#329,#331,#333,#335,#337));
#339=FACE_OUTER_BOUND('',#338,.F.);
#341=ORIENTED_EDGE('',*,*,#340,.T.);
#343=ORIENTED_EDGE('',*,*,#342,.T.);
#344=EDGE_LOOP('',(#341,#343));
#345=FACE_BOUND('',#344,.F.);
#347=ORIENTED_EDGE('',*,*,#346,.T.);
#349=ORIENTED_EDGE('',*,*,#348,.T.);
#351=ORIENTED_EDGE('',*,*,#350,.T.);
#353=ORIENTED_EDGE('',*,*,#352,.F.);
#354=EDGE_LOOP('',(#347,#349,#351,#353));
#355=FACE_BOUND('',#354,.F.);
#357=ORIENTED_EDGE('',*,*,#356,.T.);
#359=ORIENTED_EDGE('',*,*,#358,.T.);
#361=ORIENTED_EDGE('',*,*,#360,.T.);
#363=ORIENTED_EDGE('',*,*,#362,.F.);
#364=EDGE_LOOP('',(#357,#359,#361,#363));
#365=FACE_BOUND('',#364,.F.);
#366=ADVANCED_FACE('',(#339,#345,#355,#365),#321,.T.);
#367=CARTESIAN_POINT('',(-1.283405313436E-1,4.07E0,-1.125E0));
#368=DIRECTION('',(1.E0,0.E0,0.E0));
#369=DIRECTION('',(0.E0,0.E0,-1.E0));
#370=AXIS2_PLACEMENT_3D('',#367,#368,#369);
#371=CYLINDRICAL_SURFACE('',#370,2.5E-1);
#372=ORIENTED_EDGE('',*,*,#322,.T.);
#374=ORIENTED_EDGE('',*,*,#373,.F.);
#376=ORIENTED_EDGE('',*,*,#375,.T.);
#378=ORIENTED_EDGE('',*,*,#377,.T.);
#379=EDGE_LOOP('',(#372,#374,#376,#378));
#380=FACE_OUTER_BOUND('',#379,.F.);
#381=ADVANCED_FACE('',(#380),#371,.T.);
#382=CARTESIAN_POINT('',(-6.05E-2,4.32E0,0.E0));
#383=DIRECTION('',(0.E0,1.E0,0.E0));
#384=DIRECTION('',(0.E0,0.E0,1.E0));
#385=AXIS2_PLACEMENT_3D('',#382,#383,#384);
#386=PLANE('',#385);
#387=ORIENTED_EDGE('',*,*,#373,.T.);
#388=ORIENTED_EDGE('',*,*,#336,.T.);
#390=ORIENTED_EDGE('',*,*,#389,.F.);
#392=ORIENTED_EDGE('',*,*,#391,.F.);
#393=EDGE_LOOP('',(#387,#388,#390,#392));
#394=FACE_OUTER_BOUND('',#393,.F.);
#395=ADVANCED_FACE('',(#394),#386,.T.);
#396=CARTESIAN_POINT('',(-1.283405313436E-1,4.07E0,1.125E0));
#397=DIRECTION('',(1.E0,0.E0,0.E0));
#398=DIRECTION('',(0.E0,1.E0,0.E0));
#399=AXIS2_PLACEMENT_3D('',#396,#397,#398);
#400=CYLINDRICAL_SURFACE('',#399,2.5E-1);
#401=ORIENTED_EDGE('',*,*,#334,.T.);
#403=ORIENTED_EDGE('',*,*,#402,.F.);
#405=ORIENTED_EDGE('',*,*,#404,.T.);
#406=ORIENTED_EDGE('',*,*,#389,.T.);
#407=EDGE_LOOP('',(#401,#403,#405,#406));
#408=FACE_OUTER_BOUND('',#407,.F.);
#409=ADVANCED_FACE('',(#408),#400,.T.);
#410=CARTESIAN_POINT('',(-6.05E-2,2.16E0,1.375E0));
#411=DIRECTION('',(0.E0,0.E0,1.E0));
#412=DIRECTION('',(0.E0,-1.E0,0.E0));
#413=AXIS2_PLACEMENT_3D('',#410,#411,#412);
#414=PLANE('',#413);
#415=ORIENTED_EDGE('',*,*,#402,.T.);
#416=ORIENTED_EDGE('',*,*,#332,.T.);
#418=ORIENTED_EDGE('',*,*,#417,.F.);
#420=ORIENTED_EDGE('',*,*,#419,.F.);
#421=EDGE_LOOP('',(#415,#416,#418,#420));
#422=FACE_OUTER_BOUND('',#421,.F.);
#423=ADVANCED_FACE('',(#422),#414,.T.);
#424=CARTESIAN_POINT('',(-1.283405313436E-1,2.5E-1,1.125E0));
#425=DIRECTION('',(1.E0,0.E0,0.E0));
#426=DIRECTION('',(0.E0,0.E0,1.E0));
#427=AXIS2_PLACEMENT_3D('',#424,#425,#426);
#428=CYLINDRICAL_SURFACE('',#427,2.5E-1);
#429=ORIENTED_EDGE('',*,*,#330,.T.);
#431=ORIENTED_EDGE('',*,*,#430,.F.);
#433=ORIENTED_EDGE('',*,*,#432,.T.);
#434=ORIENTED_EDGE('',*,*,#417,.T.);
#435=EDGE_LOOP('',(#429,#431,#433,#434));
#436=FACE_OUTER_BOUND('',#435,.F.);
#437=ADVANCED_FACE('',(#436),#428,.T.);
#438=CARTESIAN_POINT('',(-6.05E-2,0.E0,0.E0));
#439=DIRECTION('',(0.E0,-1.E0,0.E0));
#440=DIRECTION('',(0.E0,0.E0,-1.E0));
#441=AXIS2_PLACEMENT_3D('',#438,#439,#440);
#442=PLANE('',#441);
#443=ORIENTED_EDGE('',*,*,#430,.T.);
#444=ORIENTED_EDGE('',*,*,#328,.T.);
#446=ORIENTED_EDGE('',*,*,#445,.F.);
#448=ORIENTED_EDGE('',*,*,#447,.F.);
#449=EDGE_LOOP('',(#443,#444,#446,#448));
#450=FACE_OUTER_BOUND('',#449,.F.);
#451=ADVANCED_FACE('',(#450),#442,.T.);
#452=CARTESIAN_POINT('',(-1.283405313436E-1,2.5E-1,-1.125E0));
#453=DIRECTION('',(1.E0,0.E0,0.E0));
#454=DIRECTION('',(0.E0,-1.E0,0.E0));
#455=AXIS2_PLACEMENT_3D('',#452,#453,#454);
#456=CYLINDRICAL_SURFACE('',#455,2.5E-1);
#457=ORIENTED_EDGE('',*,*,#326,.T.);
#459=ORIENTED_EDGE('',*,*,#458,.F.);
#461=ORIENTED_EDGE('',*,*,#460,.T.);
#462=ORIENTED_EDGE('',*,*,#445,.T.);
#463=EDGE_LOOP('',(#457,#459,#461,#462));
#464=FACE_OUTER_BOUND('',#463,.F.);
#465=ADVANCED_FACE('',(#464),#456,.T.);
#466=CARTESIAN_POINT('',(-6.05E-2,2.16E0,-1.375E0));
#467=DIRECTION('',(0.E0,0.E0,-1.E0));
#468=DIRECTION('',(0.E0,1.E0,0.E0));
#469=AXIS2_PLACEMENT_3D('',#466,#467,#468);
#470=PLANE('',#469);
#471=ORIENTED_EDGE('',*,*,#377,.F.);
#473=ORIENTED_EDGE('',*,*,#472,.F.);
#474=ORIENTED_EDGE('',*,*,#458,.T.);
#475=ORIENTED_EDGE('',*,*,#324,.T.);
#476=EDGE_LOOP('',(#471,#473,#474,#475));
#477=FACE_OUTER_BOUND('',#476,.F.);
#478=ADVANCED_FACE('',(#477),#470,.T.);
#479=CARTESIAN_POINT('',(-1.21E-1,0.E0,0.E0));
#480=DIRECTION('',(1.E0,0.E0,0.E0));
#481=DIRECTION('',(0.E0,0.E0,-1.E0));
#482=AXIS2_PLACEMENT_3D('',#479,#480,#481);
#483=PLANE('',#482);
#484=ORIENTED_EDGE('',*,*,#375,.F.);
#485=ORIENTED_EDGE('',*,*,#391,.T.);
#486=ORIENTED_EDGE('',*,*,#404,.F.);
#487=ORIENTED_EDGE('',*,*,#419,.T.);
#488=ORIENTED_EDGE('',*,*,#432,.F.);
#489=ORIENTED_EDGE('',*,*,#447,.T.);
#490=ORIENTED_EDGE('',*,*,#460,.F.);
#491=ORIENTED_EDGE('',*,*,#472,.T.);
#492=EDGE_LOOP('',(#484,#485,#486,#487,#488,#489,#490,#491));
#493=FACE_OUTER_BOUND('',#492,.F.);
#495=ORIENTED_EDGE('',*,*,#494,.F.);
#497=ORIENTED_EDGE('',*,*,#496,.F.);
#498=EDGE_LOOP('',(#495,#497));
#499=FACE_BOUND('',#498,.F.);
#501=ORIENTED_EDGE('',*,*,#500,.F.);
#503=ORIENTED_EDGE('',*,*,#502,.T.);
#505=ORIENTED_EDGE('',*,*,#504,.F.);
#507=ORIENTED_EDGE('',*,*,#506,.F.);
#508=EDGE_LOOP('',(#501,#503,#505,#507));
#509=FACE_BOUND('',#508,.F.);
#511=ORIENTED_EDGE('',*,*,#510,.F.);
#513=ORIENTED_EDGE('',*,*,#512,.T.);
#515=ORIENTED_EDGE('',*,*,#514,.F.);
#517=ORIENTED_EDGE('',*,*,#516,.F.);
#518=EDGE_LOOP('',(#511,#513,#515,#517));
#519=FACE_BOUND('',#518,.F.);
#520=ADVANCED_FACE('',(#493,#499,#509,#519),#483,.F.);
#521=CARTESIAN_POINT('',(-6.05E-2,3.57E0,0.E0));
#522=DIRECTION('',(1.E0,0.E0,0.E0));
#523=DIRECTION('',(0.E0,0.E0,1.E0));
#524=AXIS2_PLACEMENT_3D('',#521,#522,#523);
#525=CYLINDRICAL_SURFACE('',#524,4.2E-1);
#526=ORIENTED_EDGE('',*,*,#340,.F.);
#528=ORIENTED_EDGE('',*,*,#527,.T.);
#529=ORIENTED_EDGE('',*,*,#494,.T.);
#531=ORIENTED_EDGE('',*,*,#530,.F.);
#532=EDGE_LOOP('',(#526,#528,#529,#531));
#533=FACE_OUTER_BOUND('',#532,.F.);
#534=ADVANCED_FACE('',(#533),#525,.F.);
#535=CARTESIAN_POINT('',(-6.05E-2,3.57E0,0.E0));
#536=DIRECTION('',(1.E0,0.E0,0.E0));
#537=DIRECTION('',(0.E0,0.E0,-1.E0));
#538=AXIS2_PLACEMENT_3D('',#535,#536,#537);
#539=CYLINDRICAL_SURFACE('',#538,4.2E-1);
#540=ORIENTED_EDGE('',*,*,#342,.F.);
#541=ORIENTED_EDGE('',*,*,#530,.T.);
#542=ORIENTED_EDGE('',*,*,#496,.T.);
#543=ORIENTED_EDGE('',*,*,#527,.F.);
#544=EDGE_LOOP('',(#540,#541,#542,#543));
#545=FACE_OUTER_BOUND('',#544,.F.);
#546=ADVANCED_FACE('',(#545),#539,.F.);
#547=CARTESIAN_POINT('',(-6.05E-2,1.707106781187E0,7.071067811865E-1));
#548=DIRECTION('',(1.E0,0.E0,0.E0));
#549=DIRECTION('',(0.E0,-7.071067811865E-1,-7.071067811865E-1));
#550=AXIS2_PLACEMENT_3D('',#547,#548,#549);
#551=CYLINDRICAL_SURFACE('',#550,1.405E-1);
#552=ORIENTED_EDGE('',*,*,#356,.F.);
#554=ORIENTED_EDGE('',*,*,#553,.T.);
#555=ORIENTED_EDGE('',*,*,#500,.T.);
#557=ORIENTED_EDGE('',*,*,#556,.F.);
#558=EDGE_LOOP('',(#552,#554,#555,#557));
#559=FACE_OUTER_BOUND('',#558,.F.);
#560=ADVANCED_FACE('',(#559),#551,.F.);
#561=CARTESIAN_POINT('',(-6.05E-2,1.E0,0.E0));
#562=DIRECTION('',(1.E0,0.E0,0.E0));
#563=DIRECTION('',(0.E0,7.071067811865E-1,7.071067811865E-1));
#564=AXIS2_PLACEMENT_3D('',#561,#562,#563);
#565=CYLINDRICAL_SURFACE('',#564,8.595E-1);
#566=ORIENTED_EDGE('',*,*,#362,.T.);
#568=ORIENTED_EDGE('',*,*,#567,.T.);
#569=ORIENTED_EDGE('',*,*,#502,.F.);
#570=ORIENTED_EDGE('',*,*,#553,.F.);
#571=EDGE_LOOP('',(#566,#568,#569,#570));
#572=FACE_OUTER_BOUND('',#571,.F.);
#573=ADVANCED_FACE('',(#572),#565,.T.);
#574=CARTESIAN_POINT('',(-6.05E-2,2.928932188135E-1,7.071067811865E-1));
#575=DIRECTION('',(1.E0,0.E0,0.E0));
#576=DIRECTION('',(0.E0,-7.071067811865E-1,7.071067811865E-1));
#577=AXIS2_PLACEMENT_3D('',#574,#575,#576);
#578=CYLINDRICAL_SURFACE('',#577,1.405E-1);
#579=ORIENTED_EDGE('',*,*,#360,.F.);
#581=ORIENTED_EDGE('',*,*,#580,.T.);
#582=ORIENTED_EDGE('',*,*,#504,.T.);
#583=ORIENTED_EDGE('',*,*,#567,.F.);
#584=EDGE_LOOP('',(#579,#581,#582,#583));
#585=FACE_OUTER_BOUND('',#584,.F.);
#586=ADVANCED_FACE('',(#585),#578,.F.);
#587=CARTESIAN_POINT('',(-6.05E-2,1.E0,0.E0));
#588=DIRECTION('',(1.E0,0.E0,0.E0));
#589=DIRECTION('',(0.E0,7.071067811865E-1,7.071067811865E-1));
#590=AXIS2_PLACEMENT_3D('',#587,#588,#589);
#591=CYLINDRICAL_SURFACE('',#590,1.1405E0);
#592=ORIENTED_EDGE('',*,*,#358,.F.);
#593=ORIENTED_EDGE('',*,*,#556,.T.);
#594=ORIENTED_EDGE('',*,*,#506,.T.);
#595=ORIENTED_EDGE('',*,*,#580,.F.);
#596=EDGE_LOOP('',(#592,#593,#594,#595));
#597=FACE_OUTER_BOUND('',#596,.F.);
#598=ADVANCED_FACE('',(#597),#591,.F.);
#599=CARTESIAN_POINT('',(-6.05E-2,2.928932188135E-1,-7.071067811865E-1));
#600=DIRECTION('',(1.E0,0.E0,0.E0));
#601=DIRECTION('',(0.E0,7.071067811865E-1,7.071067811865E-1));
#602=AXIS2_PLACEMENT_3D('',#599,#600,#601);
#603=CYLINDRICAL_SURFACE('',#602,1.405E-1);
#604=ORIENTED_EDGE('',*,*,#346,.F.);
#606=ORIENTED_EDGE('',*,*,#605,.T.);
#607=ORIENTED_EDGE('',*,*,#510,.T.);
#609=ORIENTED_EDGE('',*,*,#608,.F.);
#610=EDGE_LOOP('',(#604,#606,#607,#609));
#611=FACE_OUTER_BOUND('',#610,.F.);
#612=ADVANCED_FACE('',(#611),#603,.F.);
#613=CARTESIAN_POINT('',(-6.05E-2,1.E0,0.E0));
#614=DIRECTION('',(1.E0,0.E0,0.E0));
#615=DIRECTION('',(0.E0,-7.071067811865E-1,-7.071067811865E-1));
#616=AXIS2_PLACEMENT_3D('',#613,#614,#615);
#617=CYLINDRICAL_SURFACE('',#616,8.595E-1);
#618=ORIENTED_EDGE('',*,*,#352,.T.);
#620=ORIENTED_EDGE('',*,*,#619,.T.);
#621=ORIENTED_EDGE('',*,*,#512,.F.);
#622=ORIENTED_EDGE('',*,*,#605,.F.);
#623=EDGE_LOOP('',(#618,#620,#621,#622));
#624=FACE_OUTER_BOUND('',#623,.F.);
#625=ADVANCED_FACE('',(#624),#617,.T.);
#626=CARTESIAN_POINT('',(-6.05E-2,1.707106781187E0,-7.071067811865E-1));
#627=DIRECTION('',(1.E0,0.E0,0.E0));
#628=DIRECTION('',(0.E0,7.071067811865E-1,-7.071067811865E-1));
#629=AXIS2_PLACEMENT_3D('',#626,#627,#628);
#630=CYLINDRICAL_SURFACE('',#629,1.405E-1);
#631=ORIENTED_EDGE('',*,*,#350,.F.);
#633=ORIENTED_EDGE('',*,*,#632,.T.);
#634=ORIENTED_EDGE('',*,*,#514,.T.);
#635=ORIENTED_EDGE('',*,*,#619,.F.);
#636=EDGE_LOOP('',(#631,#633,#634,#635));
#637=FACE_OUTER_BOUND('',#636,.F.);
#638=ADVANCED_FACE('',(#637),#630,.F.);
#639=CARTESIAN_POINT('',(-6.05E-2,1.E0,0.E0));
#640=DIRECTION('',(1.E0,0.E0,0.E0));
#641=DIRECTION('',(0.E0,-7.071067811865E-1,-7.071067811865E-1));
#642=AXIS2_PLACEMENT_3D('',#639,#640,#641);
#643=CYLINDRICAL_SURFACE('',#642,1.1405E0);
#644=ORIENTED_EDGE('',*,*,#348,.F.);
#645=ORIENTED_EDGE('',*,*,#608,.T.);
#646=ORIENTED_EDGE('',*,*,#516,.T.);
#647=ORIENTED_EDGE('',*,*,#632,.F.);
#648=EDGE_LOOP('',(#644,#645,#646,#647));
#649=FACE_OUTER_BOUND('',#648,.F.);
#650=ADVANCED_FACE('',(#649),#643,.F.);
#651=CLOSED_SHELL('',(#366,#381,#395,#409,#423,#437,#451,#465,#478,#520,#534,
#546,#560,#573,#586,#598,#612,#625,#638,#650));
#652=MANIFOLD_SOLID_BREP('',#651);
#653=DIMENSIONAL_EXPONENTS(1.E0,0.E0,0.E0,0.E0,0.E0,0.E0,0.E0);
#654=(LENGTH_UNIT()NAMED_UNIT(*)SI_UNIT(.MILLI.,.METRE.));
#655=LENGTH_MEASURE_WITH_UNIT(LENGTH_MEASURE(2.54E1),#654);
#656=(CONVERSION_BASED_UNIT('INCH',#655)LENGTH_UNIT()NAMED_UNIT(#653));
#657=DIMENSIONAL_EXPONENTS(0.E0,0.E0,0.E0,0.E0,0.E0,0.E0,0.E0);
#658=(NAMED_UNIT(*)PLANE_ANGLE_UNIT()SI_UNIT($,.RADIAN.));
#659=PLANE_ANGLE_MEASURE_WITH_UNIT(PLANE_ANGLE_MEASURE(1.745329251994E-2),#658);
#660=(CONVERSION_BASED_UNIT('DEGREE',#659)NAMED_UNIT(#657)PLANE_ANGLE_UNIT());
#661=(NAMED_UNIT(*)SI_UNIT($,.STERADIAN.)SOLID_ANGLE_UNIT());
#662=UNCERTAINTY_MEASURE_WITH_UNIT(LENGTH_MEASURE(5.490135929821E-4),#656,
'closure',
'Maximum model space distance between geometric entities at asserted connectivities');
#663=(GEOMETRIC_REPRESENTATION_CONTEXT(3)GLOBAL_UNCERTAINTY_ASSIGNED_CONTEXT((
#662))GLOBAL_UNIT_ASSIGNED_CONTEXT((#656,#660,#661))REPRESENTATION_CONTEXT
('ID1','3'));
#665=APPLICATION_CONTEXT(
'CONFIGURATION CONTROLLED 3D DESIGNS OF MECHANICAL PARTS AND ASSEMBLIES');
#666=APPLICATION_PROTOCOL_DEFINITION('international standard',
'config_control_design',1994,#665);
#667=DESIGN_CONTEXT('',#665,'design');
#668=MECHANICAL_CONTEXT('',#665,'mechanical');
#669=PRODUCT('156782_SW','156782_SW','NOT SPECIFIED',(#668));
#670=PRODUCT_DEFINITION_FORMATION_WITH_SPECIFIED_SOURCE('','LAST_VERSION',#669,
.MADE.);
#674=PRODUCT_CATEGORY('part','');
#675=PRODUCT_RELATED_PRODUCT_CATEGORY('detail','',(#669));
#676=PRODUCT_CATEGORY_RELATIONSHIP('','',#674,#675);
#677=SECURITY_CLASSIFICATION_LEVEL('unclassified');
#678=SECURITY_CLASSIFICATION('','',#677);
#679=CC_DESIGN_SECURITY_CLASSIFICATION(#678,(#670));
#680=APPROVAL_STATUS('approved');
#681=APPROVAL(#680,'');
#682=CC_DESIGN_APPROVAL(#681,(#678,#670,#671));
#683=CALENDAR_DATE(111,6,10);
#684=COORDINATED_UNIVERSAL_TIME_OFFSET(5,0,.BEHIND.);
#685=LOCAL_TIME(9,53,8.E0,#684);
#686=DATE_AND_TIME(#683,#685);
#687=APPROVAL_DATE_TIME(#686,#681);
#688=DATE_TIME_ROLE('creation_date');
#689=CC_DESIGN_DATE_AND_TIME_ASSIGNMENT(#686,#688,(#671));
#690=DATE_TIME_ROLE('classification_date');
#691=CC_DESIGN_DATE_AND_TIME_ASSIGNMENT(#686,#690,(#678));
#692=PERSON('UNSPECIFIED','UNSPECIFIED',$,$,$,$);
#693=ORGANIZATION('UNSPECIFIED','UNSPECIFIED','UNSPECIFIED');
#694=PERSON_AND_ORGANIZATION(#692,#693);
#695=APPROVAL_ROLE('approver');
#696=APPROVAL_PERSON_ORGANIZATION(#694,#681,#695);
#697=PERSON_AND_ORGANIZATION_ROLE('creator');
#698=CC_DESIGN_PERSON_AND_ORGANIZATION_ASSIGNMENT(#694,#697,(#670,#671));
#699=PERSON_AND_ORGANIZATION_ROLE('design_supplier');
#700=CC_DESIGN_PERSON_AND_ORGANIZATION_ASSIGNMENT(#694,#699,(#670));
#701=PERSON_AND_ORGANIZATION_ROLE('classification_officer');
#702=CC_DESIGN_PERSON_AND_ORGANIZATION_ASSIGNMENT(#694,#701,(#678));
#703=PERSON_AND_ORGANIZATION_ROLE('design_owner');
#704=CC_DESIGN_PERSON_AND_ORGANIZATION_ASSIGNMENT(#694,#703,(#669));
#5=CIRCLE('',#4,2.5E-1);
#14=CIRCLE('',#13,2.5E-1);
#23=CIRCLE('',#22,2.5E-1);
#32=CIRCLE('',#31,2.5E-1);
#41=CIRCLE('',#40,4.2E-1);
#46=CIRCLE('',#45,4.2E-1);
#51=CIRCLE('',#50,1.405E-1);
#56=CIRCLE('',#55,1.1405E0);
#61=CIRCLE('',#60,1.405E-1);
#66=CIRCLE('',#65,8.595E-1);
#71=CIRCLE('',#70,1.405E-1);
#76=CIRCLE('',#75,1.1405E0);
#81=CIRCLE('',#80,1.405E-1);
#86=CIRCLE('',#85,8.595E-1);
#123=CIRCLE('',#122,2.5E-1);
#132=CIRCLE('',#131,2.5E-1);
#141=CIRCLE('',#140,2.5E-1);
#150=CIRCLE('',#149,2.5E-1);
#159=CIRCLE('',#158,4.2E-1);
#164=CIRCLE('',#163,4.2E-1);
#169=CIRCLE('',#168,1.405E-1);
#174=CIRCLE('',#173,8.595E-1);
#179=CIRCLE('',#178,1.405E-1);
#184=CIRCLE('',#183,1.1405E0);
#189=CIRCLE('',#188,1.405E-1);
#194=CIRCLE('',#193,8.595E-1);
#199=CIRCLE('',#198,1.405E-1);
#204=CIRCLE('',#203,1.1405E0);
#322=EDGE_CURVE('',#247,#248,#5,.T.);
#324=EDGE_CURVE('',#280,#247,#9,.T.);
#326=EDGE_CURVE('',#279,#280,#14,.T.);
#328=EDGE_CURVE('',#272,#279,#18,.T.);
#330=EDGE_CURVE('',#271,#272,#23,.T.);
#332=EDGE_CURVE('',#256,#271,#27,.T.);
#334=EDGE_CURVE('',#255,#256,#32,.T.);
#336=EDGE_CURVE('',#248,#255,#36,.T.);
#340=EDGE_CURVE('',#263,#264,#41,.T.);
#342=EDGE_CURVE('',#264,#263,#46,.T.);
#346=EDGE_CURVE('',#287,#288,#51,.T.);
#348=EDGE_CURVE('',#288,#292,#56,.T.);
#350=EDGE_CURVE('',#292,#290,#61,.T.);
#352=EDGE_CURVE('',#287,#290,#66,.T.);
#356=EDGE_CURVE('',#295,#296,#71,.T.);
#358=EDGE_CURVE('',#296,#300,#76,.T.);
#360=EDGE_CURVE('',#300,#298,#81,.T.);
#362=EDGE_CURVE('',#295,#298,#86,.T.);
#373=EDGE_CURVE('',#250,#248,#90,.T.);
#375=EDGE_CURVE('',#250,#252,#123,.T.);
#377=EDGE_CURVE('',#252,#247,#114,.T.);
#389=EDGE_CURVE('',#260,#255,#94,.T.);
#391=EDGE_CURVE('',#250,#260,#127,.T.);
#402=EDGE_CURVE('',#258,#256,#98,.T.);
#404=EDGE_CURVE('',#258,#260,#132,.T.);
#417=EDGE_CURVE('',#276,#271,#102,.T.);
#419=EDGE_CURVE('',#258,#276,#136,.T.);
#430=EDGE_CURVE('',#274,#272,#106,.T.);
#432=EDGE_CURVE('',#274,#276,#141,.T.);
#445=EDGE_CURVE('',#284,#279,#110,.T.);
#447=EDGE_CURVE('',#274,#284,#145,.T.);
#458=EDGE_CURVE('',#282,#280,#118,.T.);
#460=EDGE_CURVE('',#282,#284,#150,.T.);
#472=EDGE_CURVE('',#282,#252,#154,.T.);
#494=EDGE_CURVE('',#267,#268,#159,.T.);
#496=EDGE_CURVE('',#268,#267,#164,.T.);
#500=EDGE_CURVE('',#311,#312,#169,.T.);
#502=EDGE_CURVE('',#311,#314,#174,.T.);
#504=EDGE_CURVE('',#316,#314,#179,.T.);
#506=EDGE_CURVE('',#312,#316,#184,.T.);
#510=EDGE_CURVE('',#303,#304,#189,.T.);
#512=EDGE_CURVE('',#303,#306,#194,.T.);
#514=EDGE_CURVE('',#308,#306,#199,.T.);
#516=EDGE_CURVE('',#304,#308,#204,.T.);
#527=EDGE_CURVE('',#263,#267,#208,.T.);
#530=EDGE_CURVE('',#264,#268,#212,.T.);
#553=EDGE_CURVE('',#295,#311,#216,.T.);
#556=EDGE_CURVE('',#296,#312,#228,.T.);
#567=EDGE_CURVE('',#298,#314,#220,.T.);
#580=EDGE_CURVE('',#300,#316,#224,.T.);
#605=EDGE_CURVE('',#287,#303,#232,.T.);
#608=EDGE_CURVE('',#288,#304,#244,.T.);
#619=EDGE_CURVE('',#290,#306,#236,.T.);
#632=EDGE_CURVE('',#292,#308,#240,.T.);
#664=ADVANCED_BREP_SHAPE_REPRESENTATION('',(#652),#663);
#671=PRODUCT_DEFINITION('design','',#670,#667);
#672=PRODUCT_DEFINITION_SHAPE('','SHAPE FOR 156782_SW.',#671);
#673=SHAPE_DEFINITION_REPRESENTATION(#672,#664);
ENDSEC;
END-ISO-10303-21;
