ISO-10303-21;
HEADER;
FILE_DESCRIPTION((''),'2;1');
FILE_NAME('156757_SW','2011-10-06T',('banengservice'),('BANNER ENGINEERING'),
'PRO/ENGINEER BY PARAMETRIC TECHNOLOGY CORPORATION, 2009141',
'PRO/ENGINEER BY PARAMETRIC TECHNOLOGY CORPORATION, 2009141','');
FILE_SCHEMA(('CONFIG_CONTROL_DESIGN'));
ENDSEC;
DATA;
#1=DIRECTION('',(0.E0,0.E0,1.E0));
#2=VECTOR('',#1,3.64E0);
#3=CARTESIAN_POINT('',(1.6E0,0.E0,-3.77E0));
#4=LINE('',#3,#2);
#5=DIRECTION('',(1.E0,0.E0,0.E0));
#6=VECTOR('',#5,1.34E0);
#7=CARTESIAN_POINT('',(1.3E-1,0.E0,-3.9E0));
#8=LINE('',#7,#6);
#9=DIRECTION('',(0.E0,0.E0,-1.E0));
#10=VECTOR('',#9,3.64E0);
#11=CARTESIAN_POINT('',(0.E0,0.E0,-1.3E-1));
#12=LINE('',#11,#10);
#13=DIRECTION('',(-1.E0,0.E0,0.E0));
#14=VECTOR('',#13,1.34E0);
#15=CARTESIAN_POINT('',(1.47E0,0.E0,0.E0));
#16=LINE('',#15,#14);
#17=CARTESIAN_POINT('',(4.E-1,0.E0,-3.394E0));
#18=DIRECTION('',(0.E0,1.E0,0.E0));
#19=DIRECTION('',(1.E0,0.E0,0.E0));
#20=AXIS2_PLACEMENT_3D('',#17,#18,#19);
#22=CARTESIAN_POINT('',(4.E-1,0.E0,-3.394E0));
#23=DIRECTION('',(0.E0,1.E0,0.E0));
#24=DIRECTION('',(-1.E0,0.E0,0.E0));
#25=AXIS2_PLACEMENT_3D('',#22,#23,#24);
#27=CARTESIAN_POINT('',(4.E-1,0.E0,-5.E-1));
#28=DIRECTION('',(0.E0,1.E0,0.E0));
#29=DIRECTION('',(1.E0,0.E0,0.E0));
#30=AXIS2_PLACEMENT_3D('',#27,#28,#29);
#32=CARTESIAN_POINT('',(4.E-1,0.E0,-5.E-1));
#33=DIRECTION('',(0.E0,1.E0,0.E0));
#34=DIRECTION('',(-1.E0,0.E0,0.E0));
#35=AXIS2_PLACEMENT_3D('',#32,#33,#34);
#37=CARTESIAN_POINT('',(1.25E0,0.E0,-4.5E-1));
#38=DIRECTION('',(0.E0,1.E0,0.E0));
#39=DIRECTION('',(1.E0,0.E0,0.E0));
#40=AXIS2_PLACEMENT_3D('',#37,#38,#39);
#42=CARTESIAN_POINT('',(1.25E0,0.E0,-4.5E-1));
#43=DIRECTION('',(0.E0,1.E0,0.E0));
#44=DIRECTION('',(-1.E0,0.E0,0.E0));
#45=AXIS2_PLACEMENT_3D('',#42,#43,#44);
#47=CARTESIAN_POINT('',(1.25E0,0.E0,-3.45E0));
#48=DIRECTION('',(0.E0,1.E0,0.E0));
#49=DIRECTION('',(1.E0,0.E0,0.E0));
#50=AXIS2_PLACEMENT_3D('',#47,#48,#49);
#52=CARTESIAN_POINT('',(1.25E0,0.E0,-3.45E0));
#53=DIRECTION('',(0.E0,1.E0,0.E0));
#54=DIRECTION('',(-1.E0,0.E0,0.E0));
#55=AXIS2_PLACEMENT_3D('',#52,#53,#54);
#57=DIRECTION('',(0.E0,-1.E0,0.E0));
#58=VECTOR('',#57,9.E-2);
#59=CARTESIAN_POINT('',(1.6E0,9.E-2,-1.3E-1));
#60=LINE('',#59,#58);
#61=CARTESIAN_POINT('',(1.47E0,0.E0,-1.3E-1));
#62=DIRECTION('',(0.E0,-1.E0,0.E0));
#63=DIRECTION('',(1.E0,0.E0,0.E0));
#64=AXIS2_PLACEMENT_3D('',#61,#62,#63);
#66=DIRECTION('',(0.E0,-1.E0,0.E0));
#67=VECTOR('',#66,9.E-2);
#68=CARTESIAN_POINT('',(1.47E0,9.E-2,0.E0));
#69=LINE('',#68,#67);
#70=CARTESIAN_POINT('',(1.47E0,9.E-2,-1.3E-1));
#71=DIRECTION('',(0.E0,1.E0,0.E0));
#72=DIRECTION('',(0.E0,0.E0,1.E0));
#73=AXIS2_PLACEMENT_3D('',#70,#71,#72);
#75=DIRECTION('',(-1.E0,0.E0,0.E0));
#76=VECTOR('',#75,1.34E0);
#77=CARTESIAN_POINT('',(1.47E0,9.E-2,0.E0));
#78=LINE('',#77,#76);
#79=DIRECTION('',(0.E0,0.E0,-1.E0));
#80=VECTOR('',#79,3.64E0);
#81=CARTESIAN_POINT('',(0.E0,9.E-2,-1.3E-1));
#82=LINE('',#81,#80);
#83=DIRECTION('',(1.E0,0.E0,0.E0));
#84=VECTOR('',#83,1.34E0);
#85=CARTESIAN_POINT('',(1.3E-1,9.E-2,-3.9E0));
#86=LINE('',#85,#84);
#87=DIRECTION('',(0.E0,0.E0,1.E0));
#88=VECTOR('',#87,3.64E0);
#89=CARTESIAN_POINT('',(1.6E0,9.E-2,-3.77E0));
#90=LINE('',#89,#88);
#91=CARTESIAN_POINT('',(4.E-1,9.E-2,-3.394E0));
#92=DIRECTION('',(0.E0,1.E0,0.E0));
#93=DIRECTION('',(1.E0,0.E0,0.E0));
#94=AXIS2_PLACEMENT_3D('',#91,#92,#93);
#96=CARTESIAN_POINT('',(4.E-1,9.E-2,-3.394E0));
#97=DIRECTION('',(0.E0,1.E0,0.E0));
#98=DIRECTION('',(-1.E0,0.E0,0.E0));
#99=AXIS2_PLACEMENT_3D('',#96,#97,#98);
#101=CARTESIAN_POINT('',(4.E-1,9.E-2,-5.E-1));
#102=DIRECTION('',(0.E0,1.E0,0.E0));
#103=DIRECTION('',(1.E0,0.E0,0.E0));
#104=AXIS2_PLACEMENT_3D('',#101,#102,#103);
#106=CARTESIAN_POINT('',(4.E-1,9.E-2,-5.E-1));
#107=DIRECTION('',(0.E0,1.E0,0.E0));
#108=DIRECTION('',(-1.E0,0.E0,0.E0));
#109=AXIS2_PLACEMENT_3D('',#106,#107,#108);
#111=CARTESIAN_POINT('',(1.25E0,9.E-2,-4.5E-1));
#112=DIRECTION('',(0.E0,1.E0,0.E0));
#113=DIRECTION('',(1.E0,0.E0,0.E0));
#114=AXIS2_PLACEMENT_3D('',#111,#112,#113);
#116=CARTESIAN_POINT('',(1.25E0,9.E-2,-4.5E-1));
#117=DIRECTION('',(0.E0,1.E0,0.E0));
#118=DIRECTION('',(-1.E0,0.E0,0.E0));
#119=AXIS2_PLACEMENT_3D('',#116,#117,#118);
#121=CARTESIAN_POINT('',(1.25E0,9.E-2,-3.45E0));
#122=DIRECTION('',(0.E0,1.E0,0.E0));
#123=DIRECTION('',(1.E0,0.E0,0.E0));
#124=AXIS2_PLACEMENT_3D('',#121,#122,#123);
#126=CARTESIAN_POINT('',(1.25E0,9.E-2,-3.45E0));
#127=DIRECTION('',(0.E0,1.E0,0.E0));
#128=DIRECTION('',(-1.E0,0.E0,0.E0));
#129=AXIS2_PLACEMENT_3D('',#126,#127,#128);
#131=DIRECTION('',(0.E0,-1.E0,0.E0));
#132=VECTOR('',#131,9.E-2);
#133=CARTESIAN_POINT('',(1.3E-1,9.E-2,0.E0));
#134=LINE('',#133,#132);
#135=CARTESIAN_POINT('',(1.3E-1,0.E0,-1.3E-1));
#136=DIRECTION('',(0.E0,-1.E0,0.E0));
#137=DIRECTION('',(0.E0,0.E0,1.E0));
#138=AXIS2_PLACEMENT_3D('',#135,#136,#137);
#140=DIRECTION('',(0.E0,-1.E0,0.E0));
#141=VECTOR('',#140,9.E-2);
#142=CARTESIAN_POINT('',(0.E0,9.E-2,-1.3E-1));
#143=LINE('',#142,#141);
#144=CARTESIAN_POINT('',(1.3E-1,9.E-2,-1.3E-1));
#145=DIRECTION('',(0.E0,1.E0,0.E0));
#146=DIRECTION('',(-1.E0,0.E0,0.E0));
#147=AXIS2_PLACEMENT_3D('',#144,#145,#146);
#149=DIRECTION('',(0.E0,-1.E0,0.E0));
#150=VECTOR('',#149,9.E-2);
#151=CARTESIAN_POINT('',(0.E0,9.E-2,-3.77E0));
#152=LINE('',#151,#150);
#153=CARTESIAN_POINT('',(1.3E-1,0.E0,-3.77E0));
#154=DIRECTION('',(0.E0,-1.E0,0.E0));
#155=DIRECTION('',(-1.E0,0.E0,0.E0));
#156=AXIS2_PLACEMENT_3D('',#153,#154,#155);
#158=DIRECTION('',(0.E0,-1.E0,0.E0));
#159=VECTOR('',#158,9.E-2);
#160=CARTESIAN_POINT('',(1.3E-1,9.E-2,-3.9E0));
#161=LINE('',#160,#159);
#162=CARTESIAN_POINT('',(1.3E-1,9.E-2,-3.77E0));
#163=DIRECTION('',(0.E0,1.E0,0.E0));
#164=DIRECTION('',(0.E0,0.E0,-1.E0));
#165=AXIS2_PLACEMENT_3D('',#162,#163,#164);
#167=DIRECTION('',(0.E0,-1.E0,0.E0));
#168=VECTOR('',#167,9.E-2);
#169=CARTESIAN_POINT('',(1.47E0,9.E-2,-3.9E0));
#170=LINE('',#169,#168);
#171=CARTESIAN_POINT('',(1.47E0,0.E0,-3.77E0));
#172=DIRECTION('',(0.E0,-1.E0,0.E0));
#173=DIRECTION('',(0.E0,0.E0,-1.E0));
#174=AXIS2_PLACEMENT_3D('',#171,#172,#173);
#176=DIRECTION('',(0.E0,-1.E0,0.E0));
#177=VECTOR('',#176,9.E-2);
#178=CARTESIAN_POINT('',(1.6E0,9.E-2,-3.77E0));
#179=LINE('',#178,#177);
#180=CARTESIAN_POINT('',(1.47E0,9.E-2,-3.77E0));
#181=DIRECTION('',(0.E0,1.E0,0.E0));
#182=DIRECTION('',(1.E0,0.E0,0.E0));
#183=AXIS2_PLACEMENT_3D('',#180,#181,#182);
#185=CARTESIAN_POINT('',(4.E-1,1.5E-2,-3.394E0));
#186=DIRECTION('',(0.E0,1.E0,0.E0));
#187=DIRECTION('',(1.E0,0.E0,0.E0));
#188=AXIS2_PLACEMENT_3D('',#185,#186,#187);
#190=DIRECTION('',(-7.071067811865E-1,7.071067811865E-1,0.E0));
#191=VECTOR('',#190,1.060660171780E-1);
#192=CARTESIAN_POINT('',(3.1E-1,1.5E-2,-3.394E0));
#193=LINE('',#192,#191);
#194=CARTESIAN_POINT('',(4.E-1,1.5E-2,-3.394E0));
#195=DIRECTION('',(0.E0,-1.E0,0.E0));
#196=DIRECTION('',(1.E0,0.E0,0.E0));
#197=AXIS2_PLACEMENT_3D('',#194,#195,#196);
#199=DIRECTION('',(7.071067811865E-1,7.071067811865E-1,0.E0));
#200=VECTOR('',#199,1.060660171780E-1);
#201=CARTESIAN_POINT('',(4.9E-1,1.5E-2,-3.394E0));
#202=LINE('',#201,#200);
#203=DIRECTION('',(0.E0,1.E0,0.E0));
#204=VECTOR('',#203,1.5E-2);
#205=CARTESIAN_POINT('',(4.9E-1,0.E0,-3.394E0));
#206=LINE('',#205,#204);
#207=DIRECTION('',(0.E0,1.E0,0.E0));
#208=VECTOR('',#207,1.5E-2);
#209=CARTESIAN_POINT('',(3.1E-1,0.E0,-3.394E0));
#210=LINE('',#209,#208);
#211=CARTESIAN_POINT('',(4.E-1,1.5E-2,-5.E-1));
#212=DIRECTION('',(0.E0,1.E0,0.E0));
#213=DIRECTION('',(1.E0,0.E0,0.E0));
#214=AXIS2_PLACEMENT_3D('',#211,#212,#213);
#216=DIRECTION('',(-7.071067811865E-1,7.071067811865E-1,0.E0));
#217=VECTOR('',#216,1.060660171780E-1);
#218=CARTESIAN_POINT('',(3.1E-1,1.5E-2,-5.E-1));
#219=LINE('',#218,#217);
#220=CARTESIAN_POINT('',(4.E-1,1.5E-2,-5.E-1));
#221=DIRECTION('',(0.E0,-1.E0,0.E0));
#222=DIRECTION('',(1.E0,0.E0,0.E0));
#223=AXIS2_PLACEMENT_3D('',#220,#221,#222);
#225=DIRECTION('',(7.071067811865E-1,7.071067811865E-1,0.E0));
#226=VECTOR('',#225,1.060660171780E-1);
#227=CARTESIAN_POINT('',(4.9E-1,1.5E-2,-5.E-1));
#228=LINE('',#227,#226);
#229=DIRECTION('',(0.E0,1.E0,0.E0));
#230=VECTOR('',#229,1.5E-2);
#231=CARTESIAN_POINT('',(4.9E-1,0.E0,-5.E-1));
#232=LINE('',#231,#230);
#233=DIRECTION('',(0.E0,1.E0,0.E0));
#234=VECTOR('',#233,1.5E-2);
#235=CARTESIAN_POINT('',(3.1E-1,0.E0,-5.E-1));
#236=LINE('',#235,#234);
#237=DIRECTION('',(0.E0,-1.E0,0.E0));
#238=VECTOR('',#237,9.E-2);
#239=CARTESIAN_POINT('',(1.383E0,9.E-2,-4.5E-1));
#240=LINE('',#239,#238);
#241=DIRECTION('',(0.E0,-1.E0,0.E0));
#242=VECTOR('',#241,9.E-2);
#243=CARTESIAN_POINT('',(1.117E0,9.E-2,-4.5E-1));
#244=LINE('',#243,#242);
#245=DIRECTION('',(0.E0,-1.E0,0.E0));
#246=VECTOR('',#245,9.E-2);
#247=CARTESIAN_POINT('',(1.383E0,9.E-2,-3.45E0));
#248=LINE('',#247,#246);
#249=DIRECTION('',(0.E0,-1.E0,0.E0));
#250=VECTOR('',#249,9.E-2);
#251=CARTESIAN_POINT('',(1.117E0,9.E-2,-3.45E0));
#252=LINE('',#251,#250);
#253=CARTESIAN_POINT('',(1.6E0,9.E-2,-1.3E-1));
#254=CARTESIAN_POINT('',(1.6E0,0.E0,-1.3E-1));
#255=VERTEX_POINT('',#253);
#256=VERTEX_POINT('',#254);
#257=CARTESIAN_POINT('',(1.47E0,0.E0,0.E0));
#258=VERTEX_POINT('',#257);
#259=CARTESIAN_POINT('',(1.47E0,9.E-2,0.E0));
#260=VERTEX_POINT('',#259);
#261=CARTESIAN_POINT('',(1.47E0,9.E-2,-3.9E0));
#262=CARTESIAN_POINT('',(1.47E0,0.E0,-3.9E0));
#263=VERTEX_POINT('',#261);
#264=VERTEX_POINT('',#262);
#265=CARTESIAN_POINT('',(1.6E0,0.E0,-3.77E0));
#266=VERTEX_POINT('',#265);
#267=CARTESIAN_POINT('',(1.6E0,9.E-2,-3.77E0));
#268=VERTEX_POINT('',#267);
#269=CARTESIAN_POINT('',(0.E0,9.E-2,-3.77E0));
#270=CARTESIAN_POINT('',(0.E0,0.E0,-3.77E0));
#271=VERTEX_POINT('',#269);
#272=VERTEX_POINT('',#270);
#273=CARTESIAN_POINT('',(1.3E-1,0.E0,-3.9E0));
#274=VERTEX_POINT('',#273);
#275=CARTESIAN_POINT('',(1.3E-1,9.E-2,-3.9E0));
#276=VERTEX_POINT('',#275);
#277=CARTESIAN_POINT('',(1.3E-1,9.E-2,0.E0));
#278=CARTESIAN_POINT('',(1.3E-1,0.E0,0.E0));
#279=VERTEX_POINT('',#277);
#280=VERTEX_POINT('',#278);
#281=CARTESIAN_POINT('',(0.E0,0.E0,-1.3E-1));
#282=VERTEX_POINT('',#281);
#283=CARTESIAN_POINT('',(0.E0,9.E-2,-1.3E-1));
#284=VERTEX_POINT('',#283);
#285=CARTESIAN_POINT('',(4.9E-1,1.5E-2,-5.E-1));
#286=CARTESIAN_POINT('',(3.1E-1,1.5E-2,-5.E-1));
#287=VERTEX_POINT('',#285);
#288=VERTEX_POINT('',#286);
#289=CARTESIAN_POINT('',(5.65E-1,9.E-2,-5.E-1));
#290=CARTESIAN_POINT('',(2.35E-1,9.E-2,-5.E-1));
#291=VERTEX_POINT('',#289);
#292=VERTEX_POINT('',#290);
#293=CARTESIAN_POINT('',(4.9E-1,1.5E-2,-3.394E0));
#294=CARTESIAN_POINT('',(3.1E-1,1.5E-2,-3.394E0));
#295=VERTEX_POINT('',#293);
#296=VERTEX_POINT('',#294);
#297=CARTESIAN_POINT('',(5.65E-1,9.E-2,-3.394E0));
#298=CARTESIAN_POINT('',(2.35E-1,9.E-2,-3.394E0));
#299=VERTEX_POINT('',#297);
#300=VERTEX_POINT('',#298);
#301=CARTESIAN_POINT('',(4.9E-1,0.E0,-5.E-1));
#302=CARTESIAN_POINT('',(3.1E-1,0.E0,-5.E-1));
#303=VERTEX_POINT('',#301);
#304=VERTEX_POINT('',#302);
#305=CARTESIAN_POINT('',(4.9E-1,0.E0,-3.394E0));
#306=CARTESIAN_POINT('',(3.1E-1,0.E0,-3.394E0));
#307=VERTEX_POINT('',#305);
#308=VERTEX_POINT('',#306);
#309=CARTESIAN_POINT('',(1.383E0,0.E0,-4.5E-1));
#310=CARTESIAN_POINT('',(1.117E0,0.E0,-4.5E-1));
#311=VERTEX_POINT('',#309);
#312=VERTEX_POINT('',#310);
#313=CARTESIAN_POINT('',(1.383E0,0.E0,-3.45E0));
#314=CARTESIAN_POINT('',(1.117E0,0.E0,-3.45E0));
#315=VERTEX_POINT('',#313);
#316=VERTEX_POINT('',#314);
#317=CARTESIAN_POINT('',(1.383E0,9.E-2,-4.5E-1));
#318=CARTESIAN_POINT('',(1.117E0,9.E-2,-4.5E-1));
#319=VERTEX_POINT('',#317);
#320=VERTEX_POINT('',#318);
#321=CARTESIAN_POINT('',(1.383E0,9.E-2,-3.45E0));
#322=CARTESIAN_POINT('',(1.117E0,9.E-2,-3.45E0));
#323=VERTEX_POINT('',#321);
#324=VERTEX_POINT('',#322);
#325=CARTESIAN_POINT('',(0.E0,0.E0,0.E0));
#326=DIRECTION('',(0.E0,-1.E0,0.E0));
#327=DIRECTION('',(1.E0,0.E0,0.E0));
#328=AXIS2_PLACEMENT_3D('',#325,#326,#327);
#329=PLANE('',#328);
#331=ORIENTED_EDGE('',*,*,#330,.F.);
#333=ORIENTED_EDGE('',*,*,#332,.F.);
#335=ORIENTED_EDGE('',*,*,#334,.F.);
#337=ORIENTED_EDGE('',*,*,#336,.F.);
#339=ORIENTED_EDGE('',*,*,#338,.F.);
#341=ORIENTED_EDGE('',*,*,#340,.F.);
#343=ORIENTED_EDGE('',*,*,#342,.F.);
#345=ORIENTED_EDGE('',*,*,#344,.F.);
#346=EDGE_LOOP('',(#331,#333,#335,#337,#339,#341,#343,#345));
#347=FACE_OUTER_BOUND('',#346,.F.);
#349=ORIENTED_EDGE('',*,*,#348,.F.);
#351=ORIENTED_EDGE('',*,*,#350,.F.);
#352=EDGE_LOOP('',(#349,#351));
#353=FACE_BOUND('',#352,.F.);
#355=ORIENTED_EDGE('',*,*,#354,.F.);
#357=ORIENTED_EDGE('',*,*,#356,.F.);
#358=EDGE_LOOP('',(#355,#357));
#359=FACE_BOUND('',#358,.F.);
#361=ORIENTED_EDGE('',*,*,#360,.F.);
#363=ORIENTED_EDGE('',*,*,#362,.F.);
#364=EDGE_LOOP('',(#361,#363));
#365=FACE_BOUND('',#364,.F.);
#367=ORIENTED_EDGE('',*,*,#366,.F.);
#369=ORIENTED_EDGE('',*,*,#368,.F.);
#370=EDGE_LOOP('',(#367,#369));
#371=FACE_BOUND('',#370,.F.);
#372=ADVANCED_FACE('',(#347,#353,#359,#365,#371),#329,.T.);
#373=CARTESIAN_POINT('',(1.47E0,9.563728121928E-2,-1.3E-1));
#374=DIRECTION('',(0.E0,-1.E0,0.E0));
#375=DIRECTION('',(1.E0,0.E0,0.E0));
#376=AXIS2_PLACEMENT_3D('',#373,#374,#375);
#377=CYLINDRICAL_SURFACE('',#376,1.3E-1);
#379=ORIENTED_EDGE('',*,*,#378,.T.);
#380=ORIENTED_EDGE('',*,*,#330,.T.);
#382=ORIENTED_EDGE('',*,*,#381,.F.);
#384=ORIENTED_EDGE('',*,*,#383,.T.);
#385=EDGE_LOOP('',(#379,#380,#382,#384));
#386=FACE_OUTER_BOUND('',#385,.F.);
#387=ADVANCED_FACE('',(#386),#377,.T.);
#388=CARTESIAN_POINT('',(1.6E0,4.5E-2,-1.95E0));
#389=DIRECTION('',(1.E0,0.E0,0.E0));
#390=DIRECTION('',(0.E0,0.E0,1.E0));
#391=AXIS2_PLACEMENT_3D('',#388,#389,#390);
#392=PLANE('',#391);
#393=ORIENTED_EDGE('',*,*,#378,.F.);
#395=ORIENTED_EDGE('',*,*,#394,.F.);
#397=ORIENTED_EDGE('',*,*,#396,.T.);
#398=ORIENTED_EDGE('',*,*,#332,.T.);
#399=EDGE_LOOP('',(#393,#395,#397,#398));
#400=FACE_OUTER_BOUND('',#399,.F.);
#401=ADVANCED_FACE('',(#400),#392,.T.);
#402=CARTESIAN_POINT('',(0.E0,9.E-2,0.E0));
#403=DIRECTION('',(0.E0,-1.E0,0.E0));
#404=DIRECTION('',(1.E0,0.E0,0.E0));
#405=AXIS2_PLACEMENT_3D('',#402,#403,#404);
#406=PLANE('',#405);
#407=ORIENTED_EDGE('',*,*,#383,.F.);
#409=ORIENTED_EDGE('',*,*,#408,.T.);
#411=ORIENTED_EDGE('',*,*,#410,.F.);
#413=ORIENTED_EDGE('',*,*,#412,.T.);
#415=ORIENTED_EDGE('',*,*,#414,.F.);
#417=ORIENTED_EDGE('',*,*,#416,.T.);
#419=ORIENTED_EDGE('',*,*,#418,.F.);
#420=ORIENTED_EDGE('',*,*,#394,.T.);
#421=EDGE_LOOP('',(#407,#409,#411,#413,#415,#417,#419,#420));
#422=FACE_OUTER_BOUND('',#421,.F.);
#424=ORIENTED_EDGE('',*,*,#423,.T.);
#426=ORIENTED_EDGE('',*,*,#425,.T.);
#427=EDGE_LOOP('',(#424,#426));
#428=FACE_BOUND('',#427,.F.);
#430=ORIENTED_EDGE('',*,*,#429,.T.);
#432=ORIENTED_EDGE('',*,*,#431,.T.);
#433=EDGE_LOOP('',(#430,#432));
#434=FACE_BOUND('',#433,.F.);
#436=ORIENTED_EDGE('',*,*,#435,.T.);
#438=ORIENTED_EDGE('',*,*,#437,.T.);
#439=EDGE_LOOP('',(#436,#438));
#440=FACE_BOUND('',#439,.F.);
#442=ORIENTED_EDGE('',*,*,#441,.T.);
#444=ORIENTED_EDGE('',*,*,#443,.T.);
#445=EDGE_LOOP('',(#442,#444));
#446=FACE_BOUND('',#445,.F.);
#447=ADVANCED_FACE('',(#422,#428,#434,#440,#446),#406,.F.);
#448=CARTESIAN_POINT('',(8.E-1,4.5E-2,0.E0));
#449=DIRECTION('',(0.E0,0.E0,1.E0));
#450=DIRECTION('',(-1.E0,0.E0,0.E0));
#451=AXIS2_PLACEMENT_3D('',#448,#449,#450);
#452=PLANE('',#451);
#453=ORIENTED_EDGE('',*,*,#381,.T.);
#454=ORIENTED_EDGE('',*,*,#344,.T.);
#456=ORIENTED_EDGE('',*,*,#455,.F.);
#457=ORIENTED_EDGE('',*,*,#408,.F.);
#458=EDGE_LOOP('',(#453,#454,#456,#457));
#459=FACE_OUTER_BOUND('',#458,.F.);
#460=ADVANCED_FACE('',(#459),#452,.T.);
#461=CARTESIAN_POINT('',(1.3E-1,9.563728121928E-2,-1.3E-1));
#462=DIRECTION('',(0.E0,-1.E0,0.E0));
#463=DIRECTION('',(0.E0,0.E0,1.E0));
#464=AXIS2_PLACEMENT_3D('',#461,#462,#463);
#465=CYLINDRICAL_SURFACE('',#464,1.3E-1);
#466=ORIENTED_EDGE('',*,*,#455,.T.);
#467=ORIENTED_EDGE('',*,*,#342,.T.);
#469=ORIENTED_EDGE('',*,*,#468,.F.);
#470=ORIENTED_EDGE('',*,*,#410,.T.);
#471=EDGE_LOOP('',(#466,#467,#469,#470));
#472=FACE_OUTER_BOUND('',#471,.F.);
#473=ADVANCED_FACE('',(#472),#465,.T.);
#474=CARTESIAN_POINT('',(0.E0,4.5E-2,-1.95E0));
#475=DIRECTION('',(-1.E0,0.E0,0.E0));
#476=DIRECTION('',(0.E0,0.E0,-1.E0));
#477=AXIS2_PLACEMENT_3D('',#474,#475,#476);
#478=PLANE('',#477);
#480=ORIENTED_EDGE('',*,*,#479,.F.);
#481=ORIENTED_EDGE('',*,*,#412,.F.);
#482=ORIENTED_EDGE('',*,*,#468,.T.);
#483=ORIENTED_EDGE('',*,*,#340,.T.);
#484=EDGE_LOOP('',(#480,#481,#482,#483));
#485=FACE_OUTER_BOUND('',#484,.F.);
#486=ADVANCED_FACE('',(#485),#478,.T.);
#487=CARTESIAN_POINT('',(1.3E-1,9.563728121928E-2,-3.77E0));
#488=DIRECTION('',(0.E0,-1.E0,0.E0));
#489=DIRECTION('',(-1.E0,0.E0,0.E0));
#490=AXIS2_PLACEMENT_3D('',#487,#488,#489);
#491=CYLINDRICAL_SURFACE('',#490,1.3E-1);
#492=ORIENTED_EDGE('',*,*,#479,.T.);
#493=ORIENTED_EDGE('',*,*,#338,.T.);
#495=ORIENTED_EDGE('',*,*,#494,.F.);
#496=ORIENTED_EDGE('',*,*,#414,.T.);
#497=EDGE_LOOP('',(#492,#493,#495,#496));
#498=FACE_OUTER_BOUND('',#497,.F.);
#499=ADVANCED_FACE('',(#498),#491,.T.);
#500=CARTESIAN_POINT('',(8.E-1,4.5E-2,-3.9E0));
#501=DIRECTION('',(0.E0,0.E0,-1.E0));
#502=DIRECTION('',(1.E0,0.E0,0.E0));
#503=AXIS2_PLACEMENT_3D('',#500,#501,#502);
#504=PLANE('',#503);
#506=ORIENTED_EDGE('',*,*,#505,.F.);
#507=ORIENTED_EDGE('',*,*,#416,.F.);
#508=ORIENTED_EDGE('',*,*,#494,.T.);
#509=ORIENTED_EDGE('',*,*,#336,.T.);
#510=EDGE_LOOP('',(#506,#507,#508,#509));
#511=FACE_OUTER_BOUND('',#510,.F.);
#512=ADVANCED_FACE('',(#511),#504,.T.);
#513=CARTESIAN_POINT('',(1.47E0,9.563728121928E-2,-3.77E0));
#514=DIRECTION('',(0.E0,-1.E0,0.E0));
#515=DIRECTION('',(0.E0,0.E0,-1.E0));
#516=AXIS2_PLACEMENT_3D('',#513,#514,#515);
#517=CYLINDRICAL_SURFACE('',#516,1.3E-1);
#518=ORIENTED_EDGE('',*,*,#505,.T.);
#519=ORIENTED_EDGE('',*,*,#334,.T.);
#520=ORIENTED_EDGE('',*,*,#396,.F.);
#521=ORIENTED_EDGE('',*,*,#418,.T.);
#522=EDGE_LOOP('',(#518,#519,#520,#521));
#523=FACE_OUTER_BOUND('',#522,.F.);
#524=ADVANCED_FACE('',(#523),#517,.T.);
#525=CARTESIAN_POINT('',(4.E-1,5.25E-2,-3.394E0));
#526=DIRECTION('',(0.E0,1.E0,0.E0));
#527=DIRECTION('',(1.E0,0.E0,0.E0));
#528=AXIS2_PLACEMENT_3D('',#525,#526,#527);
#529=CONICAL_SURFACE('',#528,1.275E-1,4.5E1);
#530=ORIENTED_EDGE('',*,*,#423,.F.);
#532=ORIENTED_EDGE('',*,*,#531,.F.);
#534=ORIENTED_EDGE('',*,*,#533,.T.);
#536=ORIENTED_EDGE('',*,*,#535,.T.);
#537=EDGE_LOOP('',(#530,#532,#534,#536));
#538=FACE_OUTER_BOUND('',#537,.F.);
#539=ADVANCED_FACE('',(#538),#529,.F.);
#540=CARTESIAN_POINT('',(4.E-1,5.25E-2,-3.394E0));
#541=DIRECTION('',(0.E0,1.E0,0.E0));
#542=DIRECTION('',(1.E0,0.E0,0.E0));
#543=AXIS2_PLACEMENT_3D('',#540,#541,#542);
#544=CONICAL_SURFACE('',#543,1.275E-1,4.5E1);
#545=ORIENTED_EDGE('',*,*,#425,.F.);
#546=ORIENTED_EDGE('',*,*,#535,.F.);
#548=ORIENTED_EDGE('',*,*,#547,.F.);
#549=ORIENTED_EDGE('',*,*,#531,.T.);
#550=EDGE_LOOP('',(#545,#546,#548,#549));
#551=FACE_OUTER_BOUND('',#550,.F.);
#552=ADVANCED_FACE('',(#551),#544,.F.);
#553=CARTESIAN_POINT('',(4.E-1,-4.5E-3,-3.394E0));
#554=DIRECTION('',(0.E0,1.E0,0.E0));
#555=DIRECTION('',(1.E0,0.E0,0.E0));
#556=AXIS2_PLACEMENT_3D('',#553,#554,#555);
#557=CYLINDRICAL_SURFACE('',#556,9.E-2);
#558=ORIENTED_EDGE('',*,*,#350,.T.);
#560=ORIENTED_EDGE('',*,*,#559,.T.);
#561=ORIENTED_EDGE('',*,*,#547,.T.);
#563=ORIENTED_EDGE('',*,*,#562,.F.);
#564=EDGE_LOOP('',(#558,#560,#561,#563));
#565=FACE_OUTER_BOUND('',#564,.F.);
#566=ADVANCED_FACE('',(#565),#557,.F.);
#567=CARTESIAN_POINT('',(4.E-1,-4.5E-3,-3.394E0));
#568=DIRECTION('',(0.E0,1.E0,0.E0));
#569=DIRECTION('',(1.E0,0.E0,0.E0));
#570=AXIS2_PLACEMENT_3D('',#567,#568,#569);
#571=CYLINDRICAL_SURFACE('',#570,9.E-2);
#572=ORIENTED_EDGE('',*,*,#348,.T.);
#573=ORIENTED_EDGE('',*,*,#562,.T.);
#574=ORIENTED_EDGE('',*,*,#533,.F.);
#575=ORIENTED_EDGE('',*,*,#559,.F.);
#576=EDGE_LOOP('',(#572,#573,#574,#575));
#577=FACE_OUTER_BOUND('',#576,.F.);
#578=ADVANCED_FACE('',(#577),#571,.F.);
#579=CARTESIAN_POINT('',(4.E-1,5.25E-2,-5.E-1));
#580=DIRECTION('',(0.E0,1.E0,0.E0));
#581=DIRECTION('',(1.E0,0.E0,0.E0));
#582=AXIS2_PLACEMENT_3D('',#579,#580,#581);
#583=CONICAL_SURFACE('',#582,1.275E-1,4.5E1);
#584=ORIENTED_EDGE('',*,*,#429,.F.);
#586=ORIENTED_EDGE('',*,*,#585,.F.);
#588=ORIENTED_EDGE('',*,*,#587,.T.);
#590=ORIENTED_EDGE('',*,*,#589,.T.);
#591=EDGE_LOOP('',(#584,#586,#588,#590));
#592=FACE_OUTER_BOUND('',#591,.F.);
#593=ADVANCED_FACE('',(#592),#583,.F.);
#594=CARTESIAN_POINT('',(4.E-1,5.25E-2,-5.E-1));
#595=DIRECTION('',(0.E0,1.E0,0.E0));
#596=DIRECTION('',(1.E0,0.E0,0.E0));
#597=AXIS2_PLACEMENT_3D('',#594,#595,#596);
#598=CONICAL_SURFACE('',#597,1.275E-1,4.5E1);
#599=ORIENTED_EDGE('',*,*,#431,.F.);
#600=ORIENTED_EDGE('',*,*,#589,.F.);
#602=ORIENTED_EDGE('',*,*,#601,.F.);
#603=ORIENTED_EDGE('',*,*,#585,.T.);
#604=EDGE_LOOP('',(#599,#600,#602,#603));
#605=FACE_OUTER_BOUND('',#604,.F.);
#606=ADVANCED_FACE('',(#605),#598,.F.);
#607=CARTESIAN_POINT('',(4.E-1,-4.5E-3,-5.E-1));
#608=DIRECTION('',(0.E0,1.E0,0.E0));
#609=DIRECTION('',(1.E0,0.E0,0.E0));
#610=AXIS2_PLACEMENT_3D('',#607,#608,#609);
#611=CYLINDRICAL_SURFACE('',#610,9.E-2);
#612=ORIENTED_EDGE('',*,*,#356,.T.);
#614=ORIENTED_EDGE('',*,*,#613,.T.);
#615=ORIENTED_EDGE('',*,*,#601,.T.);
#617=ORIENTED_EDGE('',*,*,#616,.F.);
#618=EDGE_LOOP('',(#612,#614,#615,#617));
#619=FACE_OUTER_BOUND('',#618,.F.);
#620=ADVANCED_FACE('',(#619),#611,.F.);
#621=CARTESIAN_POINT('',(4.E-1,-4.5E-3,-5.E-1));
#622=DIRECTION('',(0.E0,1.E0,0.E0));
#623=DIRECTION('',(1.E0,0.E0,0.E0));
#624=AXIS2_PLACEMENT_3D('',#621,#622,#623);
#625=CYLINDRICAL_SURFACE('',#624,9.E-2);
#626=ORIENTED_EDGE('',*,*,#354,.T.);
#627=ORIENTED_EDGE('',*,*,#616,.T.);
#628=ORIENTED_EDGE('',*,*,#587,.F.);
#629=ORIENTED_EDGE('',*,*,#613,.F.);
#630=EDGE_LOOP('',(#626,#627,#628,#629));
#631=FACE_OUTER_BOUND('',#630,.F.);
#632=ADVANCED_FACE('',(#631),#625,.F.);
#633=CARTESIAN_POINT('',(1.25E0,9.E-2,-4.5E-1));
#634=DIRECTION('',(0.E0,1.E0,0.E0));
#635=DIRECTION('',(1.E0,0.E0,0.E0));
#636=AXIS2_PLACEMENT_3D('',#633,#634,#635);
#637=CYLINDRICAL_SURFACE('',#636,1.33E-1);
#638=ORIENTED_EDGE('',*,*,#360,.T.);
#640=ORIENTED_EDGE('',*,*,#639,.F.);
#641=ORIENTED_EDGE('',*,*,#435,.F.);
#643=ORIENTED_EDGE('',*,*,#642,.T.);
#644=EDGE_LOOP('',(#638,#640,#641,#643));
#645=FACE_OUTER_BOUND('',#644,.F.);
#646=ADVANCED_FACE('',(#645),#637,.F.);
#647=CARTESIAN_POINT('',(1.25E0,9.E-2,-4.5E-1));
#648=DIRECTION('',(0.E0,1.E0,0.E0));
#649=DIRECTION('',(1.E0,0.E0,0.E0));
#650=AXIS2_PLACEMENT_3D('',#647,#648,#649);
#651=CYLINDRICAL_SURFACE('',#650,1.33E-1);
#652=ORIENTED_EDGE('',*,*,#362,.T.);
#653=ORIENTED_EDGE('',*,*,#642,.F.);
#654=ORIENTED_EDGE('',*,*,#437,.F.);
#655=ORIENTED_EDGE('',*,*,#639,.T.);
#656=EDGE_LOOP('',(#652,#653,#654,#655));
#657=FACE_OUTER_BOUND('',#656,.F.);
#658=ADVANCED_FACE('',(#657),#651,.F.);
#659=CARTESIAN_POINT('',(1.25E0,9.E-2,-3.45E0));
#660=DIRECTION('',(0.E0,1.E0,0.E0));
#661=DIRECTION('',(1.E0,0.E0,0.E0));
#662=AXIS2_PLACEMENT_3D('',#659,#660,#661);
#663=CYLINDRICAL_SURFACE('',#662,1.33E-1);
#664=ORIENTED_EDGE('',*,*,#366,.T.);
#666=ORIENTED_EDGE('',*,*,#665,.F.);
#667=ORIENTED_EDGE('',*,*,#441,.F.);
#669=ORIENTED_EDGE('',*,*,#668,.T.);
#670=EDGE_LOOP('',(#664,#666,#667,#669));
#671=FACE_OUTER_BOUND('',#670,.F.);
#672=ADVANCED_FACE('',(#671),#663,.F.);
#673=CARTESIAN_POINT('',(1.25E0,9.E-2,-3.45E0));
#674=DIRECTION('',(0.E0,1.E0,0.E0));
#675=DIRECTION('',(1.E0,0.E0,0.E0));
#676=AXIS2_PLACEMENT_3D('',#673,#674,#675);
#677=CYLINDRICAL_SURFACE('',#676,1.33E-1);
#678=ORIENTED_EDGE('',*,*,#368,.T.);
#679=ORIENTED_EDGE('',*,*,#668,.F.);
#680=ORIENTED_EDGE('',*,*,#443,.F.);
#681=ORIENTED_EDGE('',*,*,#665,.T.);
#682=EDGE_LOOP('',(#678,#679,#680,#681));
#683=FACE_OUTER_BOUND('',#682,.F.);
#684=ADVANCED_FACE('',(#683),#677,.F.);
#685=CLOSED_SHELL('',(#372,#387,#401,#447,#460,#473,#486,#499,#512,#524,#539,
#552,#566,#578,#593,#606,#620,#632,#646,#658,#672,#684));
#686=MANIFOLD_SOLID_BREP('',#685);
#687=DIMENSIONAL_EXPONENTS(1.E0,0.E0,0.E0,0.E0,0.E0,0.E0,0.E0);
#688=(LENGTH_UNIT()NAMED_UNIT(*)SI_UNIT(.MILLI.,.METRE.));
#689=LENGTH_MEASURE_WITH_UNIT(LENGTH_MEASURE(2.54E1),#688);
#690=(CONVERSION_BASED_UNIT('INCH',#689)LENGTH_UNIT()NAMED_UNIT(#687));
#691=DIMENSIONAL_EXPONENTS(0.E0,0.E0,0.E0,0.E0,0.E0,0.E0,0.E0);
#692=(NAMED_UNIT(*)PLANE_ANGLE_UNIT()SI_UNIT($,.RADIAN.));
#693=PLANE_ANGLE_MEASURE_WITH_UNIT(PLANE_ANGLE_MEASURE(1.745329251994E-2),#692);
#694=(CONVERSION_BASED_UNIT('DEGREE',#693)NAMED_UNIT(#691)PLANE_ANGLE_UNIT());
#695=(NAMED_UNIT(*)SI_UNIT($,.STERADIAN.)SOLID_ANGLE_UNIT());
#696=UNCERTAINTY_MEASURE_WITH_UNIT(LENGTH_MEASURE(4.216239767903E-4),#690,
'closure',
'Maximum model space distance between geometric entities at asserted connectivities');
#697=(GEOMETRIC_REPRESENTATION_CONTEXT(3)GLOBAL_UNCERTAINTY_ASSIGNED_CONTEXT((
#696))GLOBAL_UNIT_ASSIGNED_CONTEXT((#690,#694,#695))REPRESENTATION_CONTEXT
('ID1','3'));
#699=APPLICATION_CONTEXT(
'CONFIGURATION CONTROLLED 3D DESIGNS OF MECHANICAL PARTS AND ASSEMBLIES');
#700=APPLICATION_PROTOCOL_DEFINITION('international standard',
'config_control_design',1994,#699);
#701=DESIGN_CONTEXT('',#699,'design');
#702=MECHANICAL_CONTEXT('',#699,'mechanical');
#703=PRODUCT('156757_SW','156757_SW','NOT SPECIFIED',(#702));
#704=PRODUCT_DEFINITION_FORMATION_WITH_SPECIFIED_SOURCE('','LAST_VERSION',#703,
.MADE.);
#708=PRODUCT_CATEGORY('part','');
#709=PRODUCT_RELATED_PRODUCT_CATEGORY('detail','',(#703));
#710=PRODUCT_CATEGORY_RELATIONSHIP('','',#708,#709);
#711=SECURITY_CLASSIFICATION_LEVEL('unclassified');
#712=SECURITY_CLASSIFICATION('','',#711);
#713=CC_DESIGN_SECURITY_CLASSIFICATION(#712,(#704));
#714=APPROVAL_STATUS('approved');
#715=APPROVAL(#714,'');
#716=CC_DESIGN_APPROVAL(#715,(#712,#704,#705));
#717=CALENDAR_DATE(111,6,10);
#718=COORDINATED_UNIVERSAL_TIME_OFFSET(5,0,.BEHIND.);
#719=LOCAL_TIME(10,21,3.6E1,#718);
#720=DATE_AND_TIME(#717,#719);
#721=APPROVAL_DATE_TIME(#720,#715);
#722=DATE_TIME_ROLE('creation_date');
#723=CC_DESIGN_DATE_AND_TIME_ASSIGNMENT(#720,#722,(#705));
#724=DATE_TIME_ROLE('classification_date');
#725=CC_DESIGN_DATE_AND_TIME_ASSIGNMENT(#720,#724,(#712));
#726=PERSON('UNSPECIFIED','UNSPECIFIED',$,$,$,$);
#727=ORGANIZATION('UNSPECIFIED','UNSPECIFIED','UNSPECIFIED');
#728=PERSON_AND_ORGANIZATION(#726,#727);
#729=APPROVAL_ROLE('approver');
#730=APPROVAL_PERSON_ORGANIZATION(#728,#715,#729);
#731=PERSON_AND_ORGANIZATION_ROLE('creator');
#732=CC_DESIGN_PERSON_AND_ORGANIZATION_ASSIGNMENT(#728,#731,(#704,#705));
#733=PERSON_AND_ORGANIZATION_ROLE('design_supplier');
#734=CC_DESIGN_PERSON_AND_ORGANIZATION_ASSIGNMENT(#728,#733,(#704));
#735=PERSON_AND_ORGANIZATION_ROLE('classification_officer');
#736=CC_DESIGN_PERSON_AND_ORGANIZATION_ASSIGNMENT(#728,#735,(#712));
#737=PERSON_AND_ORGANIZATION_ROLE('design_owner');
#738=CC_DESIGN_PERSON_AND_ORGANIZATION_ASSIGNMENT(#728,#737,(#703));
#21=CIRCLE('',#20,9.E-2);
#26=CIRCLE('',#25,9.E-2);
#31=CIRCLE('',#30,9.E-2);
#36=CIRCLE('',#35,9.E-2);
#41=CIRCLE('',#40,1.33E-1);
#46=CIRCLE('',#45,1.33E-1);
#51=CIRCLE('',#50,1.33E-1);
#56=CIRCLE('',#55,1.33E-1);
#65=CIRCLE('',#64,1.3E-1);
#74=CIRCLE('',#73,1.3E-1);
#95=CIRCLE('',#94,1.65E-1);
#100=CIRCLE('',#99,1.65E-1);
#105=CIRCLE('',#104,1.65E-1);
#110=CIRCLE('',#109,1.65E-1);
#115=CIRCLE('',#114,1.33E-1);
#120=CIRCLE('',#119,1.33E-1);
#125=CIRCLE('',#124,1.33E-1);
#130=CIRCLE('',#129,1.33E-1);
#139=CIRCLE('',#138,1.3E-1);
#148=CIRCLE('',#147,1.3E-1);
#157=CIRCLE('',#156,1.3E-1);
#166=CIRCLE('',#165,1.3E-1);
#175=CIRCLE('',#174,1.3E-1);
#184=CIRCLE('',#183,1.3E-1);
#189=CIRCLE('',#188,9.E-2);
#198=CIRCLE('',#197,9.E-2);
#215=CIRCLE('',#214,9.E-2);
#224=CIRCLE('',#223,9.E-2);
#330=EDGE_CURVE('',#256,#258,#65,.T.);
#332=EDGE_CURVE('',#266,#256,#4,.T.);
#334=EDGE_CURVE('',#264,#266,#175,.T.);
#336=EDGE_CURVE('',#274,#264,#8,.T.);
#338=EDGE_CURVE('',#272,#274,#157,.T.);
#340=EDGE_CURVE('',#282,#272,#12,.T.);
#342=EDGE_CURVE('',#280,#282,#139,.T.);
#344=EDGE_CURVE('',#258,#280,#16,.T.);
#348=EDGE_CURVE('',#307,#308,#21,.T.);
#350=EDGE_CURVE('',#308,#307,#26,.T.);
#354=EDGE_CURVE('',#303,#304,#31,.T.);
#356=EDGE_CURVE('',#304,#303,#36,.T.);
#360=EDGE_CURVE('',#311,#312,#41,.T.);
#362=EDGE_CURVE('',#312,#311,#46,.T.);
#366=EDGE_CURVE('',#315,#316,#51,.T.);
#368=EDGE_CURVE('',#316,#315,#56,.T.);
#378=EDGE_CURVE('',#255,#256,#60,.T.);
#381=EDGE_CURVE('',#260,#258,#69,.T.);
#383=EDGE_CURVE('',#260,#255,#74,.T.);
#394=EDGE_CURVE('',#268,#255,#90,.T.);
#396=EDGE_CURVE('',#268,#266,#179,.T.);
#408=EDGE_CURVE('',#260,#279,#78,.T.);
#410=EDGE_CURVE('',#284,#279,#148,.T.);
#412=EDGE_CURVE('',#284,#271,#82,.T.);
#414=EDGE_CURVE('',#276,#271,#166,.T.);
#416=EDGE_CURVE('',#276,#263,#86,.T.);
#418=EDGE_CURVE('',#268,#263,#184,.T.);
#423=EDGE_CURVE('',#299,#300,#95,.T.);
#425=EDGE_CURVE('',#300,#299,#100,.T.);
#429=EDGE_CURVE('',#291,#292,#105,.T.);
#431=EDGE_CURVE('',#292,#291,#110,.T.);
#435=EDGE_CURVE('',#319,#320,#115,.T.);
#437=EDGE_CURVE('',#320,#319,#120,.T.);
#441=EDGE_CURVE('',#323,#324,#125,.T.);
#443=EDGE_CURVE('',#324,#323,#130,.T.);
#455=EDGE_CURVE('',#279,#280,#134,.T.);
#468=EDGE_CURVE('',#284,#282,#143,.T.);
#479=EDGE_CURVE('',#271,#272,#152,.T.);
#494=EDGE_CURVE('',#276,#274,#161,.T.);
#505=EDGE_CURVE('',#263,#264,#170,.T.);
#531=EDGE_CURVE('',#295,#299,#202,.T.);
#533=EDGE_CURVE('',#295,#296,#189,.T.);
#535=EDGE_CURVE('',#296,#300,#193,.T.);
#547=EDGE_CURVE('',#295,#296,#198,.T.);
#559=EDGE_CURVE('',#307,#295,#206,.T.);
#562=EDGE_CURVE('',#308,#296,#210,.T.);
#585=EDGE_CURVE('',#287,#291,#228,.T.);
#587=EDGE_CURVE('',#287,#288,#215,.T.);
#589=EDGE_CURVE('',#288,#292,#219,.T.);
#601=EDGE_CURVE('',#287,#288,#224,.T.);
#613=EDGE_CURVE('',#303,#287,#232,.T.);
#616=EDGE_CURVE('',#304,#288,#236,.T.);
#639=EDGE_CURVE('',#320,#312,#244,.T.);
#642=EDGE_CURVE('',#319,#311,#240,.T.);
#665=EDGE_CURVE('',#324,#316,#252,.T.);
#668=EDGE_CURVE('',#323,#315,#248,.T.);
#698=ADVANCED_BREP_SHAPE_REPRESENTATION('',(#686),#697);
#705=PRODUCT_DEFINITION('design','',#704,#701);
#706=PRODUCT_DEFINITION_SHAPE('','SHAPE FOR 156757_SW.',#705);
#707=SHAPE_DEFINITION_REPRESENTATION(#706,#698);
ENDSEC;
END-ISO-10303-21;
