ISO-10303-21;
HEADER;
FILE_DESCRIPTION((''),'2;1');
FILE_NAME('156738_SW','2011-10-06T',('banengservice'),('BANNER ENGINEERING'),
'PRO/ENGINEER BY PARAMETRIC TECHNOLOGY CORPORATION, 2009141',
'PRO/ENGINEER BY PARAMETRIC TECHNOLOGY CORPORATION, 2009141','');
FILE_SCHEMA(('CONFIG_CONTROL_DESIGN'));
ENDSEC;
DATA;
#1=CARTESIAN_POINT('',(0.E0,0.E0,0.E0));
#2=DIRECTION('',(0.E0,0.E0,1.E0));
#3=DIRECTION('',(1.E0,0.E0,0.E0));
#4=AXIS2_PLACEMENT_3D('',#1,#2,#3);
#6=CARTESIAN_POINT('',(0.E0,0.E0,0.E0));
#7=DIRECTION('',(0.E0,0.E0,1.E0));
#8=DIRECTION('',(-1.E0,0.E0,0.E0));
#9=AXIS2_PLACEMENT_3D('',#6,#7,#8);
#11=CARTESIAN_POINT('',(0.E0,0.E0,0.E0));
#12=DIRECTION('',(0.E0,0.E0,-1.E0));
#13=DIRECTION('',(1.E0,0.E0,0.E0));
#14=AXIS2_PLACEMENT_3D('',#11,#12,#13);
#16=CARTESIAN_POINT('',(0.E0,0.E0,0.E0));
#17=DIRECTION('',(0.E0,0.E0,-1.E0));
#18=DIRECTION('',(-1.E0,0.E0,0.E0));
#19=AXIS2_PLACEMENT_3D('',#16,#17,#18);
#21=DIRECTION('',(0.E0,0.E0,1.E0));
#22=VECTOR('',#21,1.062992125984E0);
#23=CARTESIAN_POINT('',(7.874015748031E-1,0.E0,0.E0));
#24=LINE('',#23,#22);
#25=DIRECTION('',(0.E0,0.E0,1.E0));
#26=VECTOR('',#25,1.062992125984E0);
#27=CARTESIAN_POINT('',(-7.874015748031E-1,0.E0,0.E0));
#28=LINE('',#27,#26);
#29=CARTESIAN_POINT('',(0.E0,0.E0,1.062992125984E0));
#30=DIRECTION('',(0.E0,0.E0,1.E0));
#31=DIRECTION('',(1.E0,0.E0,0.E0));
#32=AXIS2_PLACEMENT_3D('',#29,#30,#31);
#34=CARTESIAN_POINT('',(0.E0,0.E0,1.062992125984E0));
#35=DIRECTION('',(0.E0,0.E0,1.E0));
#36=DIRECTION('',(-1.E0,0.E0,0.E0));
#37=AXIS2_PLACEMENT_3D('',#34,#35,#36);
#39=CARTESIAN_POINT('',(0.E0,0.E0,1.062992125984E0));
#40=DIRECTION('',(0.E0,0.E0,1.E0));
#41=DIRECTION('',(1.E0,0.E0,0.E0));
#42=AXIS2_PLACEMENT_3D('',#39,#40,#41);
#44=CARTESIAN_POINT('',(0.E0,0.E0,1.062992125984E0));
#45=DIRECTION('',(0.E0,0.E0,1.E0));
#46=DIRECTION('',(-1.E0,0.E0,0.E0));
#47=AXIS2_PLACEMENT_3D('',#44,#45,#46);
#49=DIRECTION('',(0.E0,0.E0,-1.E0));
#50=VECTOR('',#49,7.480314960630E-1);
#51=CARTESIAN_POINT('',(5.905511811024E-1,0.E0,1.062992125984E0));
#52=LINE('',#51,#50);
#53=DIRECTION('',(0.E0,0.E0,-1.E0));
#54=VECTOR('',#53,7.480314960630E-1);
#55=CARTESIAN_POINT('',(-5.905511811024E-1,0.E0,1.062992125984E0));
#56=LINE('',#55,#54);
#57=CARTESIAN_POINT('',(0.E0,0.E0,3.149606299213E-1));
#58=DIRECTION('',(0.E0,0.E0,1.E0));
#59=DIRECTION('',(1.E0,0.E0,0.E0));
#60=AXIS2_PLACEMENT_3D('',#57,#58,#59);
#62=CARTESIAN_POINT('',(0.E0,0.E0,3.149606299213E-1));
#63=DIRECTION('',(0.E0,0.E0,1.E0));
#64=DIRECTION('',(-1.E0,0.E0,0.E0));
#65=AXIS2_PLACEMENT_3D('',#62,#63,#64);
#67=CARTESIAN_POINT('',(0.E0,0.E0,3.149606299213E-1));
#68=DIRECTION('',(0.E0,0.E0,-1.E0));
#69=DIRECTION('',(1.E0,0.E0,0.E0));
#70=AXIS2_PLACEMENT_3D('',#67,#68,#69);
#72=CARTESIAN_POINT('',(0.E0,0.E0,3.149606299213E-1));
#73=DIRECTION('',(0.E0,0.E0,-1.E0));
#74=DIRECTION('',(-1.E0,0.E0,0.E0));
#75=AXIS2_PLACEMENT_3D('',#72,#73,#74);
#77=DIRECTION('',(0.E0,0.E0,-1.E0));
#78=VECTOR('',#77,3.149606299213E-1);
#79=CARTESIAN_POINT('',(-3.346456692913E-1,0.E0,3.149606299213E-1));
#80=LINE('',#79,#78);
#81=DIRECTION('',(0.E0,0.E0,-1.E0));
#82=VECTOR('',#81,3.149606299213E-1);
#83=CARTESIAN_POINT('',(3.346456692913E-1,0.E0,3.149606299213E-1));
#84=LINE('',#83,#82);
#85=CARTESIAN_POINT('',(7.874015748031E-1,0.E0,0.E0));
#86=CARTESIAN_POINT('',(-7.874015748031E-1,0.E0,0.E0));
#87=VERTEX_POINT('',#85);
#88=VERTEX_POINT('',#86);
#89=CARTESIAN_POINT('',(7.874015748031E-1,0.E0,1.062992125984E0));
#90=CARTESIAN_POINT('',(-7.874015748031E-1,0.E0,1.062992125984E0));
#91=VERTEX_POINT('',#89);
#92=VERTEX_POINT('',#90);
#93=CARTESIAN_POINT('',(5.905511811024E-1,0.E0,3.149606299213E-1));
#94=CARTESIAN_POINT('',(-5.905511811024E-1,0.E0,3.149606299213E-1));
#95=VERTEX_POINT('',#93);
#96=VERTEX_POINT('',#94);
#97=CARTESIAN_POINT('',(5.905511811024E-1,0.E0,1.062992125984E0));
#98=CARTESIAN_POINT('',(-5.905511811024E-1,0.E0,1.062992125984E0));
#99=VERTEX_POINT('',#97);
#100=VERTEX_POINT('',#98);
#101=CARTESIAN_POINT('',(3.346456692913E-1,0.E0,0.E0));
#102=CARTESIAN_POINT('',(-3.346456692913E-1,0.E0,0.E0));
#103=VERTEX_POINT('',#101);
#104=VERTEX_POINT('',#102);
#105=CARTESIAN_POINT('',(3.346456692913E-1,0.E0,3.149606299213E-1));
#106=CARTESIAN_POINT('',(-3.346456692913E-1,0.E0,3.149606299213E-1));
#107=VERTEX_POINT('',#105);
#108=VERTEX_POINT('',#106);
#109=CARTESIAN_POINT('',(0.E0,0.E0,0.E0));
#110=DIRECTION('',(0.E0,0.E0,1.E0));
#111=DIRECTION('',(1.E0,0.E0,0.E0));
#112=AXIS2_PLACEMENT_3D('',#109,#110,#111);
#113=PLANE('',#112);
#115=ORIENTED_EDGE('',*,*,#114,.T.);
#117=ORIENTED_EDGE('',*,*,#116,.T.);
#118=EDGE_LOOP('',(#115,#117));
#119=FACE_OUTER_BOUND('',#118,.F.);
#121=ORIENTED_EDGE('',*,*,#120,.T.);
#123=ORIENTED_EDGE('',*,*,#122,.T.);
#124=EDGE_LOOP('',(#121,#123));
#125=FACE_BOUND('',#124,.F.);
#126=ADVANCED_FACE('',(#119,#125),#113,.F.);
#127=CARTESIAN_POINT('',(0.E0,0.E0,0.E0));
#128=DIRECTION('',(0.E0,0.E0,1.E0));
#129=DIRECTION('',(1.E0,0.E0,0.E0));
#130=AXIS2_PLACEMENT_3D('',#127,#128,#129);
#131=CYLINDRICAL_SURFACE('',#130,7.874015748031E-1);
#132=ORIENTED_EDGE('',*,*,#114,.F.);
#134=ORIENTED_EDGE('',*,*,#133,.T.);
#136=ORIENTED_EDGE('',*,*,#135,.T.);
#138=ORIENTED_EDGE('',*,*,#137,.F.);
#139=EDGE_LOOP('',(#132,#134,#136,#138));
#140=FACE_OUTER_BOUND('',#139,.F.);
#141=ADVANCED_FACE('',(#140),#131,.T.);
#142=CARTESIAN_POINT('',(0.E0,0.E0,0.E0));
#143=DIRECTION('',(0.E0,0.E0,1.E0));
#144=DIRECTION('',(1.E0,0.E0,0.E0));
#145=AXIS2_PLACEMENT_3D('',#142,#143,#144);
#146=CYLINDRICAL_SURFACE('',#145,7.874015748031E-1);
#147=ORIENTED_EDGE('',*,*,#116,.F.);
#148=ORIENTED_EDGE('',*,*,#137,.T.);
#150=ORIENTED_EDGE('',*,*,#149,.T.);
#151=ORIENTED_EDGE('',*,*,#133,.F.);
#152=EDGE_LOOP('',(#147,#148,#150,#151));
#153=FACE_OUTER_BOUND('',#152,.F.);
#154=ADVANCED_FACE('',(#153),#146,.T.);
#155=CARTESIAN_POINT('',(0.E0,0.E0,1.062992125984E0));
#156=DIRECTION('',(0.E0,0.E0,1.E0));
#157=DIRECTION('',(1.E0,0.E0,0.E0));
#158=AXIS2_PLACEMENT_3D('',#155,#156,#157);
#159=PLANE('',#158);
#160=ORIENTED_EDGE('',*,*,#135,.F.);
#161=ORIENTED_EDGE('',*,*,#149,.F.);
#162=EDGE_LOOP('',(#160,#161));
#163=FACE_OUTER_BOUND('',#162,.F.);
#165=ORIENTED_EDGE('',*,*,#164,.T.);
#167=ORIENTED_EDGE('',*,*,#166,.T.);
#168=EDGE_LOOP('',(#165,#167));
#169=FACE_BOUND('',#168,.F.);
#170=ADVANCED_FACE('',(#163,#169),#159,.T.);
#171=CARTESIAN_POINT('',(0.E0,0.E0,1.062992125984E0));
#172=DIRECTION('',(0.E0,0.E0,1.E0));
#173=DIRECTION('',(1.E0,0.E0,0.E0));
#174=AXIS2_PLACEMENT_3D('',#171,#172,#173);
#175=CYLINDRICAL_SURFACE('',#174,5.905511811024E-1);
#176=ORIENTED_EDGE('',*,*,#164,.F.);
#178=ORIENTED_EDGE('',*,*,#177,.T.);
#180=ORIENTED_EDGE('',*,*,#179,.T.);
#182=ORIENTED_EDGE('',*,*,#181,.F.);
#183=EDGE_LOOP('',(#176,#178,#180,#182));
#184=FACE_OUTER_BOUND('',#183,.F.);
#185=ADVANCED_FACE('',(#184),#175,.F.);
#186=CARTESIAN_POINT('',(0.E0,0.E0,1.062992125984E0));
#187=DIRECTION('',(0.E0,0.E0,1.E0));
#188=DIRECTION('',(1.E0,0.E0,0.E0));
#189=AXIS2_PLACEMENT_3D('',#186,#187,#188);
#190=CYLINDRICAL_SURFACE('',#189,5.905511811024E-1);
#191=ORIENTED_EDGE('',*,*,#166,.F.);
#192=ORIENTED_EDGE('',*,*,#181,.T.);
#194=ORIENTED_EDGE('',*,*,#193,.T.);
#195=ORIENTED_EDGE('',*,*,#177,.F.);
#196=EDGE_LOOP('',(#191,#192,#194,#195));
#197=FACE_OUTER_BOUND('',#196,.F.);
#198=ADVANCED_FACE('',(#197),#190,.F.);
#199=CARTESIAN_POINT('',(0.E0,0.E0,3.149606299213E-1));
#200=DIRECTION('',(0.E0,0.E0,1.E0));
#201=DIRECTION('',(1.E0,0.E0,0.E0));
#202=AXIS2_PLACEMENT_3D('',#199,#200,#201);
#203=PLANE('',#202);
#204=ORIENTED_EDGE('',*,*,#179,.F.);
#205=ORIENTED_EDGE('',*,*,#193,.F.);
#206=EDGE_LOOP('',(#204,#205));
#207=FACE_OUTER_BOUND('',#206,.F.);
#209=ORIENTED_EDGE('',*,*,#208,.F.);
#211=ORIENTED_EDGE('',*,*,#210,.F.);
#212=EDGE_LOOP('',(#209,#211));
#213=FACE_BOUND('',#212,.F.);
#214=ADVANCED_FACE('',(#207,#213),#203,.T.);
#215=CARTESIAN_POINT('',(0.E0,0.E0,1.227755905512E0));
#216=DIRECTION('',(0.E0,0.E0,-1.E0));
#217=DIRECTION('',(1.E0,0.E0,0.E0));
#218=AXIS2_PLACEMENT_3D('',#215,#216,#217);
#219=CYLINDRICAL_SURFACE('',#218,3.346456692913E-1);
#220=ORIENTED_EDGE('',*,*,#120,.F.);
#222=ORIENTED_EDGE('',*,*,#221,.F.);
#223=ORIENTED_EDGE('',*,*,#208,.T.);
#225=ORIENTED_EDGE('',*,*,#224,.T.);
#226=EDGE_LOOP('',(#220,#222,#223,#225));
#227=FACE_OUTER_BOUND('',#226,.F.);
#228=ADVANCED_FACE('',(#227),#219,.F.);
#229=CARTESIAN_POINT('',(0.E0,0.E0,1.227755905512E0));
#230=DIRECTION('',(0.E0,0.E0,-1.E0));
#231=DIRECTION('',(1.E0,0.E0,0.E0));
#232=AXIS2_PLACEMENT_3D('',#229,#230,#231);
#233=CYLINDRICAL_SURFACE('',#232,3.346456692913E-1);
#234=ORIENTED_EDGE('',*,*,#122,.F.);
#235=ORIENTED_EDGE('',*,*,#224,.F.);
#236=ORIENTED_EDGE('',*,*,#210,.T.);
#237=ORIENTED_EDGE('',*,*,#221,.T.);
#238=EDGE_LOOP('',(#234,#235,#236,#237));
#239=FACE_OUTER_BOUND('',#238,.F.);
#240=ADVANCED_FACE('',(#239),#233,.F.);
#241=CLOSED_SHELL('',(#126,#141,#154,#170,#185,#198,#214,#228,#240));
#242=MANIFOLD_SOLID_BREP('',#241);
#243=DIMENSIONAL_EXPONENTS(1.E0,0.E0,0.E0,0.E0,0.E0,0.E0,0.E0);
#244=(LENGTH_UNIT()NAMED_UNIT(*)SI_UNIT(.MILLI.,.METRE.));
#245=LENGTH_MEASURE_WITH_UNIT(LENGTH_MEASURE(2.54E1),#244);
#246=(CONVERSION_BASED_UNIT('INCH',#245)LENGTH_UNIT()NAMED_UNIT(#243));
#247=DIMENSIONAL_EXPONENTS(0.E0,0.E0,0.E0,0.E0,0.E0,0.E0,0.E0);
#248=(NAMED_UNIT(*)PLANE_ANGLE_UNIT()SI_UNIT($,.RADIAN.));
#249=PLANE_ANGLE_MEASURE_WITH_UNIT(PLANE_ANGLE_MEASURE(1.745329251994E-2),#248);
#250=(CONVERSION_BASED_UNIT('DEGREE',#249)NAMED_UNIT(#247)PLANE_ANGLE_UNIT());
#251=(NAMED_UNIT(*)SI_UNIT($,.STERADIAN.)SOLID_ANGLE_UNIT());
#252=UNCERTAINTY_MEASURE_WITH_UNIT(LENGTH_MEASURE(2.467686161710E-4),#246,
'closure',
'Maximum model space distance between geometric entities at asserted connectivities');
#253=(GEOMETRIC_REPRESENTATION_CONTEXT(3)GLOBAL_UNCERTAINTY_ASSIGNED_CONTEXT((
#252))GLOBAL_UNIT_ASSIGNED_CONTEXT((#246,#250,#251))REPRESENTATION_CONTEXT
('ID1','3'));
#255=APPLICATION_CONTEXT(
'CONFIGURATION CONTROLLED 3D DESIGNS OF MECHANICAL PARTS AND ASSEMBLIES');
#256=APPLICATION_PROTOCOL_DEFINITION('international standard',
'config_control_design',1994,#255);
#257=DESIGN_CONTEXT('',#255,'design');
#258=MECHANICAL_CONTEXT('',#255,'mechanical');
#259=PRODUCT('156738_SW','156738_SW','NOT SPECIFIED',(#258));
#260=PRODUCT_DEFINITION_FORMATION_WITH_SPECIFIED_SOURCE('','LAST_VERSION',#259,
.MADE.);
#264=PRODUCT_CATEGORY('part','');
#265=PRODUCT_RELATED_PRODUCT_CATEGORY('detail','',(#259));
#266=PRODUCT_CATEGORY_RELATIONSHIP('','',#264,#265);
#267=SECURITY_CLASSIFICATION_LEVEL('unclassified');
#268=SECURITY_CLASSIFICATION('','',#267);
#269=CC_DESIGN_SECURITY_CLASSIFICATION(#268,(#260));
#270=APPROVAL_STATUS('approved');
#271=APPROVAL(#270,'');
#272=CC_DESIGN_APPROVAL(#271,(#268,#260,#261));
#273=CALENDAR_DATE(111,6,10);
#274=COORDINATED_UNIVERSAL_TIME_OFFSET(5,0,.BEHIND.);
#275=LOCAL_TIME(10,30,4.7E1,#274);
#276=DATE_AND_TIME(#273,#275);
#277=APPROVAL_DATE_TIME(#276,#271);
#278=DATE_TIME_ROLE('creation_date');
#279=CC_DESIGN_DATE_AND_TIME_ASSIGNMENT(#276,#278,(#261));
#280=DATE_TIME_ROLE('classification_date');
#281=CC_DESIGN_DATE_AND_TIME_ASSIGNMENT(#276,#280,(#268));
#282=PERSON('UNSPECIFIED','UNSPECIFIED',$,$,$,$);
#283=ORGANIZATION('UNSPECIFIED','UNSPECIFIED','UNSPECIFIED');
#284=PERSON_AND_ORGANIZATION(#282,#283);
#285=APPROVAL_ROLE('approver');
#286=APPROVAL_PERSON_ORGANIZATION(#284,#271,#285);
#287=PERSON_AND_ORGANIZATION_ROLE('creator');
#288=CC_DESIGN_PERSON_AND_ORGANIZATION_ASSIGNMENT(#284,#287,(#260,#261));
#289=PERSON_AND_ORGANIZATION_ROLE('design_supplier');
#290=CC_DESIGN_PERSON_AND_ORGANIZATION_ASSIGNMENT(#284,#289,(#260));
#291=PERSON_AND_ORGANIZATION_ROLE('classification_officer');
#292=CC_DESIGN_PERSON_AND_ORGANIZATION_ASSIGNMENT(#284,#291,(#268));
#293=PERSON_AND_ORGANIZATION_ROLE('design_owner');
#294=CC_DESIGN_PERSON_AND_ORGANIZATION_ASSIGNMENT(#284,#293,(#259));
#5=CIRCLE('',#4,7.874015748031E-1);
#10=CIRCLE('',#9,7.874015748031E-1);
#15=CIRCLE('',#14,3.346456692913E-1);
#20=CIRCLE('',#19,3.346456692913E-1);
#33=CIRCLE('',#32,7.874015748031E-1);
#38=CIRCLE('',#37,7.874015748031E-1);
#43=CIRCLE('',#42,5.905511811024E-1);
#48=CIRCLE('',#47,5.905511811024E-1);
#61=CIRCLE('',#60,5.905511811024E-1);
#66=CIRCLE('',#65,5.905511811024E-1);
#71=CIRCLE('',#70,3.346456692913E-1);
#76=CIRCLE('',#75,3.346456692913E-1);
#114=EDGE_CURVE('',#87,#88,#5,.T.);
#116=EDGE_CURVE('',#88,#87,#10,.T.);
#120=EDGE_CURVE('',#103,#104,#15,.T.);
#122=EDGE_CURVE('',#104,#103,#20,.T.);
#133=EDGE_CURVE('',#87,#91,#24,.T.);
#135=EDGE_CURVE('',#91,#92,#33,.T.);
#137=EDGE_CURVE('',#88,#92,#28,.T.);
#149=EDGE_CURVE('',#92,#91,#38,.T.);
#164=EDGE_CURVE('',#99,#100,#43,.T.);
#166=EDGE_CURVE('',#100,#99,#48,.T.);
#177=EDGE_CURVE('',#99,#95,#52,.T.);
#179=EDGE_CURVE('',#95,#96,#61,.T.);
#181=EDGE_CURVE('',#100,#96,#56,.T.);
#193=EDGE_CURVE('',#96,#95,#66,.T.);
#208=EDGE_CURVE('',#107,#108,#71,.T.);
#210=EDGE_CURVE('',#108,#107,#76,.T.);
#221=EDGE_CURVE('',#107,#103,#84,.T.);
#224=EDGE_CURVE('',#108,#104,#80,.T.);
#254=ADVANCED_BREP_SHAPE_REPRESENTATION('',(#242),#253);
#261=PRODUCT_DEFINITION('design','',#260,#257);
#262=PRODUCT_DEFINITION_SHAPE('','SHAPE FOR 156738_SW.',#261);
#263=SHAPE_DEFINITION_REPRESENTATION(#262,#254);
ENDSEC;
END-ISO-10303-21;
