 PTC IGES file: 156738.igs                                              S      1
1H,,1H;,9H156738_SW,10H156738.igs,                                      G      1
49HPro/ENGINEER by Parametric Technology Corporation,7H2009141,32,38,7, G      2
38,15,9H156738_SW,1.,1,4HINCH,32768,0.5,15H20111006.103047,0.000246769, G      3
2.46778,13Hbanengservice,7HUnknown,10,0,15H20111006.103047;             G      4
     314       1       1       1       0       0       0       001000200D      1
     314       0       4       1       0                   COLOR       1D      2
     314       2       1       1       0       0       0       001000200D      3
     314       0       1       1       0                   COLOR       2D      4
     314       3       1       1       0       0       0       001000200D      5
     314       0       1       1       0                   COLOR       3D      6
     314       4       1       1       0       0       0       001000200D      7
     314       0       1       1       0                   COLOR       4D      8
     314       5       1       1       0       0       0       001000200D      9
     314       0       8       1       0                   COLOR       5D     10
     314       6       1       1       0       0       0       001000200D     11
     314       0       8       1       0                   COLOR       6D     12
     314       7       1       1       0       0       0       001000200D     13
     314       0       5       1       0                   COLOR       7D     14
     314       8       1       1       0       0       0       001000200D     15
     314       0       8       1       0                   COLOR       8D     16
     124       9       1       1       0       0       0       001000000D     17
     124       0       0       1       0                   XFORM       1D     18
     100      10       1       1       0       0      17       001010000D     19
     100       0       0       1       0                     ARC       1D     20
     124      11       1       1       0       0       0       001000000D     21
     124       0       0       1       0                   XFORM       2D     22
     100      12       1       1       0       0      21       001010000D     23
     100       0       0       1       0                     ARC       2D     24
     124      13       1       1       0       0       0       001000000D     25
     124       0       0       1       0                   XFORM       3D     26
     100      14       1       1       0       0      25       001010000D     27
     100       0       0       1       0                     ARC       3D     28
     124      15       1       1       0       0       0       001000000D     29
     124       0       0       1       0                   XFORM       4D     30
     100      16       1       1       0       0      29       001010000D     31
     100       0       0       1       0                     ARC       4D     32
     110      17       1       1       0       0       0       001010000D     33
     110       0       0       2       0                    LINE       1D     34
     110      19       1       1       0       0       0       001010000D     35
     110       0       0       2       0                    LINE       2D     36
     124      21       1       1       0       0       0       001000000D     37
     124       0       0       2       0                   XFORM       5D     38
     100      23       1       1       0       0      37       001010000D     39
     100       0       0       1       0                     ARC       5D     40
     124      24       1       1       0       0       0       001000000D     41
     124       0       0       2       0                   XFORM       6D     42
     100      26       1       1       0       0      41       001010000D     43
     100       0       0       1       0                     ARC       6D     44
     124      27       1       1       0       0       0       001000000D     45
     124       0       0       2       0                   XFORM       7D     46
     100      29       1       1       0       0      45       001010000D     47
     100       0       0       1       0                     ARC       7D     48
     124      30       1       1       0       0       0       001000000D     49
     124       0       0       2       0                   XFORM       8D     50
     100      32       1       1       0       0      49       001010000D     51
     100       0       0       1       0                     ARC       8D     52
     110      33       1       1       0       0       0       001010000D     53
     110       0       0       2       0                    LINE       3D     54
     110      35       1       1       0       0       0       001010000D     55
     110       0       0       2       0                    LINE       4D     56
     124      37       1       1       0       0       0       001000000D     57
     124       0       0       2       0                   XFORM       9D     58
     100      39       1       1       0       0      57       001010000D     59
     100       0       0       1       0                     ARC       9D     60
     124      40       1       1       0       0       0       001000000D     61
     124       0       0       2       0                   XFORM      10D     62
     100      42       1       1       0       0      61       001010000D     63
     100       0       0       1       0                     ARC      10D     64
     124      43       1       1       0       0       0       001000000D     65
     124       0       0       2       0                   XFORM      11D     66
     100      45       1       1       0       0      65       001010000D     67
     100       0       0       1       0                     ARC      11D     68
     124      46       1       1       0       0       0       001000000D     69
     124       0       0       2       0                   XFORM      12D     70
     100      48       1       1       0       0      69       001010000D     71
     100       0       0       1       0                     ARC      12D     72
     110      49       1       1       0       0       0       001010000D     73
     110       0       0       2       0                    LINE       5D     74
     110      51       1       1       0       0       0       001010000D     75
     110       0       0       2       0                    LINE       6D     76
     502      53       1       1       0       0       0       001010000D     77
     502       0       0       8       1                  VERTEX       1D     78
     504      61       1       1       0       0       0       000010001D     79
     504       0       0       4       1                    EDGE       1D     80
     128      65       1       1       0       0       0       001010000D     81
     128       0       0       8       0                  SPLSRF       1D     82
     508      73       1       1       0       0       0       001010000D     83
     508       0       0       1       1                EDGELOOP       1D     84
     508      74       1       1       0       0       0       001010000D     85
     508       0       0       1       1                EDGELOOP       2D     86
     510      75       1       1       0       0       0       000010000D     87
     510       0       0       1       1                    FACE       1D     88
     110      76       1       1       0       0       0       001010000D     89
     110       0       0       1       0                    LINE       7D     90
     110      77       1       1       0       0       0       001010000D     91
     110       0       0       2       0                    LINE       8D     92
     120      79       1       1       0       0       0       001010000D     93
     120       0       0       1       0                    SREV       1D     94
     508      80       1       1       0       0       0       001010000D     95
     508       0       0       1       1                EDGELOOP       3D     96
     510      81       1       1       0       0       0       000010000D     97
     510       0       0       1       1                    FACE       2D     98
     110      82       1       1       0       0       0       001010000D     99
     110       0       0       1       0                    LINE       9D    100
     110      83       1       1       0       0       0       001010000D    101
     110       0       0       2       0                    LINE      10D    102
     120      85       1       1       0       0       0       001010000D    103
     120       0       0       1       0                    SREV       2D    104
     508      86       1       1       0       0       0       001010000D    105
     508       0       0       1       1                EDGELOOP       4D    106
     510      87       1       1       0       0       0       000010000D    107
     510       0       0       1       1                    FACE       3D    108
     128      88       1       1       0       0       0       001010000D    109
     128       0       0       9       0                  SPLSRF       2D    110
     508      97       1       1       0       0       0       001010000D    111
     508       0       0       1       1                EDGELOOP       5D    112
     508      98       1       1       0       0       0       001010000D    113
     508       0       0       1       1                EDGELOOP       6D    114
     510      99       1       1       0       0       0       000010000D    115
     510       0       0       1       1                    FACE       4D    116
     110     100       1       1       0       0       0       001010000D    117
     110       0       0       1       0                    LINE      11D    118
     110     101       1       1       0       0       0       001010000D    119
     110       0       0       2       0                    LINE      12D    120
     120     103       1       1       0       0       0       001010000D    121
     120       0       0       1       0                    SREV       3D    122
     508     104       1       1       0       0       0       001010000D    123
     508       0       0       1       1                EDGELOOP       7D    124
     510     105       1       1       0       0       0       000010000D    125
     510       0       0       1       1                    FACE       5D    126
     110     106       1       1       0       0       0       001010000D    127
     110       0       0       1       0                    LINE      13D    128
     110     107       1       1       0       0       0       001010000D    129
     110       0       0       2       0                    LINE      14D    130
     120     109       1       1       0       0       0       001010000D    131
     120       0       0       1       0                    SREV       4D    132
     508     110       1       1       0       0       0       001010000D    133
     508       0       0       1       1                EDGELOOP       8D    134
     510     111       1       1       0       0       0       000010000D    135
     510       0       0       1       1                    FACE       6D    136
     128     112       1       1       0       0       0       001010000D    137
     128       0       0       9       0                  SPLSRF       3D    138
     508     121       1       1       0       0       0       001010000D    139
     508       0       0       1       1                EDGELOOP       9D    140
     508     122       1       1       0       0       0       001010000D    141
     508       0       0       1       1                EDGELOOP      10D    142
     510     123       1       1       0       0       0       000010000D    143
     510       0       0       1       1                    FACE       7D    144
     110     124       1       1       0       0       0       001010000D    145
     110       0       0       1       0                    LINE      15D    146
     110     125       1       1       0       0       0       001010000D    147
     110       0       0       2       0                    LINE      16D    148
     120     127       1       1       0       0       0       001010000D    149
     120       0       0       1       0                    SREV       5D    150
     508     128       1       1       0       0       0       001010000D    151
     508       0       0       1       1                EDGELOOP      11D    152
     510     129       1       1       0       0       0       000010000D    153
     510       0       0       1       1                    FACE       8D    154
     110     130       1       1       0       0       0       001010000D    155
     110       0       0       1       0                    LINE      17D    156
     110     131       1       1       0       0       0       001010000D    157
     110       0       0       2       0                    LINE      18D    158
     120     133       1       1       0       0       0       001010000D    159
     120       0       0       1       0                    SREV       6D    160
     508     134       1       1       0       0       0       001010000D    161
     508       0       0       1       1                EDGELOOP      12D    162
     510     135       1       1       0       0       0       000010000D    163
     510       0       0       1       1                    FACE       9D    164
     514     136       1       1       0       0       0       000010000D    165
     514       0       0       1       1                   SHELL       1D    166
     186     137       1       1       0       0       0       000000000D    167
     186       0       0       1       0                    MSBR       1D    168
314,1.1D0,1.2D0,1D2;                                                   1P      1
314,1.1D1,1.1D1,1.1D1;                                                 3P      2
314,3.92D1,1.2D0,1.2D0;                                                5P      3
314,4.1D1,0D0,2.2D1;                                                   7P      4
314,8.784D1,9.49D1,1D2;                                                9P      5
314,9.6D1,9.6D1,9.6D1;                                                11P      6
314,9.8D1,6.27D1,0D0;                                                 13P      7
314,1D2,1D2,9.49D1;                                                   15P      8
124,1D0,0D0,0D0,0D0,0D0,1D0,0D0,0D0,0D0,0D0,1D0,0D0;                  17P      9
100,0D0,0D0,0D0,7.874015748031D-1,0D0,-7.874015748031D-1,0D0;         19P     10
124,-1D0,0D0,0D0,0D0,0D0,-1D0,0D0,0D0,0D0,0D0,1D0,0D0;                21P     11
100,0D0,0D0,0D0,7.874015748031D-1,0D0,-7.874015748031D-1,0D0;         23P     12
124,1D0,0D0,0D0,0D0,0D0,-1D0,0D0,0D0,0D0,0D0,-1D0,0D0;                25P     13
100,0D0,0D0,0D0,3.346456692913D-1,0D0,-3.346456692913D-1,0D0;         27P     14
124,-1D0,0D0,0D0,0D0,0D0,1D0,0D0,0D0,0D0,0D0,-1D0,0D0;                29P     15
100,0D0,0D0,0D0,3.346456692913D-1,0D0,-3.346456692913D-1,0D0;         31P     16
110,7.874015748031D-1,0D0,0D0,7.874015748031D-1,0D0,                  33P     17
1.062992125984D0;                                                     33P     18
110,-7.874015748031D-1,0D0,0D0,-7.874015748031D-1,0D0,                35P     19
1.062992125984D0;                                                     35P     20
124,1D0,0D0,0D0,0D0,0D0,1D0,0D0,0D0,0D0,0D0,1D0,                      37P     21
1.062992125984D0;                                                     37P     22
100,0D0,0D0,0D0,7.874015748031D-1,0D0,-7.874015748031D-1,0D0;         39P     23
124,-1D0,0D0,0D0,0D0,0D0,-1D0,0D0,0D0,0D0,0D0,1D0,                    41P     24
1.062992125984D0;                                                     41P     25
100,0D0,0D0,0D0,7.874015748031D-1,0D0,-7.874015748031D-1,0D0;         43P     26
124,1D0,0D0,0D0,0D0,0D0,1D0,0D0,0D0,0D0,0D0,1D0,                      45P     27
1.062992125984D0;                                                     45P     28
100,0D0,0D0,0D0,5.905511811024D-1,0D0,-5.905511811024D-1,0D0;         47P     29
124,-1D0,0D0,0D0,0D0,0D0,-1D0,0D0,0D0,0D0,0D0,1D0,                    49P     30
1.062992125984D0;                                                     49P     31
100,0D0,0D0,0D0,5.905511811024D-1,0D0,-5.905511811024D-1,0D0;         51P     32
110,5.905511811024D-1,0D0,1.062992125984D0,5.905511811024D-1,         53P     33
0D0,3.149606299213D-1;                                                53P     34
110,-5.905511811024D-1,0D0,1.062992125984D0,-5.905511811024D-1,       55P     35
0D0,3.149606299213D-1;                                                55P     36
124,1D0,0D0,0D0,0D0,0D0,1D0,0D0,0D0,0D0,0D0,1D0,                      57P     37
3.149606299213D-1;                                                    57P     38
100,0D0,0D0,0D0,5.905511811024D-1,0D0,-5.905511811024D-1,0D0;         59P     39
124,-1D0,0D0,0D0,0D0,0D0,-1D0,0D0,0D0,0D0,0D0,1D0,                    61P     40
3.149606299213D-1;                                                    61P     41
100,0D0,0D0,0D0,5.905511811024D-1,0D0,-5.905511811024D-1,0D0;         63P     42
124,1D0,0D0,0D0,0D0,0D0,-1D0,0D0,0D0,0D0,0D0,-1D0,                    65P     43
3.149606299213D-1;                                                    65P     44
100,0D0,0D0,0D0,3.346456692913D-1,0D0,-3.346456692913D-1,0D0;         67P     45
124,-1D0,0D0,0D0,0D0,0D0,1D0,0D0,0D0,0D0,0D0,-1D0,                    69P     46
3.149606299213D-1;                                                    69P     47
100,0D0,0D0,0D0,3.346456692913D-1,0D0,-3.346456692913D-1,0D0;         71P     48
110,-3.346456692913D-1,0D0,3.149606299213D-1,-3.346456692913D-1,      73P     49
0D0,0D0;                                                              73P     50
110,3.346456692913D-1,0D0,3.149606299213D-1,3.346456692913D-1,        75P     51
0D0,0D0;                                                              75P     52
502,12,7.874015748031D-1,0D0,0D0,-7.874015748031D-1,0D0,0D0,          77P     53
7.874015748031D-1,0D0,1.062992125984D0,-7.874015748031D-1,0D0,        77P     54
1.062992125984D0,5.905511811024D-1,0D0,3.149606299213D-1,             77P     55
-5.905511811024D-1,0D0,3.149606299213D-1,5.905511811024D-1,0D0,       77P     56
1.062992125984D0,-5.905511811024D-1,0D0,1.062992125984D0,             77P     57
3.346456692913D-1,0D0,0D0,-3.346456692913D-1,0D0,0D0,                 77P     58
3.346456692913D-1,0D0,3.149606299213D-1,-3.346456692913D-1,0D0,       77P     59
3.149606299213D-1;                                                    77P     60
504,18,19,77,1,77,2,23,77,2,77,1,39,77,3,77,4,43,77,4,77,3,33,        79P     61
77,1,77,3,35,77,2,77,4,59,77,5,77,6,63,77,6,77,5,47,77,7,77,8,        79P     62
51,77,8,77,7,53,77,7,77,5,55,77,8,77,6,27,77,9,77,10,31,77,10,        79P     63
77,9,67,77,11,77,12,71,77,12,77,11,75,77,11,77,9,73,77,12,77,10;      79P     64
128,1,1,1,1,0,0,1,0,0,-8.188976377953D-1,-8.188976377953D-1,          81P     65
8.188976377953D-1,8.188976377953D-1,-8.194616582410D-1,               81P     66
-8.194616582410D-1,8.194616582410D-1,8.194616582410D-1,1D0,1D0,       81P     67
1D0,1D0,-8.188976377953D-1,-8.194616582410D-1,0D0,                    81P     68
8.188976377953D-1,-8.194616582410D-1,0D0,-8.188976377953D-1,          81P     69
8.194616582410D-1,0D0,8.188976377953D-1,8.194616582410D-1,0D0,        81P     70
-8.188976377953D-1,8.188976377953D-1,-8.194616582410D-1,              81P     71
8.194616582410D-1;                                                    81P     72
508,2,0,79,1,1,0,0,79,2,1,0;                                          83P     73
508,2,0,79,13,1,0,0,79,14,1,0;                                        85P     74
510,81,2,0,83,85;                                                     87P     75
110,0D0,0D0,0D0,0D0,0D0,1D0;                                          89P     76
110,7.874015748031D-1,0D0,-2.125984251969D-2,7.874015748031D-1,       91P     77
0D0,1.084251968504D0;                                                 91P     78
120,89,91,-6.283185307180D-2,3.204424506662D0;                        93P     79
508,4,0,79,1,0,0,0,79,5,1,0,0,79,3,1,0,0,79,6,0,0;                    95P     80
510,93,1,0,95;                                                        97P     81
110,0D0,0D0,0D0,0D0,0D0,1D0;                                          99P     82
110,7.874015748031D-1,0D0,-2.125984251969D-2,7.874015748031D-1,      101P     83
0D0,1.084251968504D0;                                                101P     84
120,99,101,3.078760800518D0,6.346017160251D0;                        103P     85
508,4,0,79,2,0,0,0,79,6,1,0,0,79,4,1,0,0,79,5,0,0;                   105P     86
510,103,1,0,105;                                                     107P     87
128,1,1,1,1,0,0,1,0,0,-8.188976377953D-1,-8.188976377953D-1,         109P     88
8.188976377953D-1,8.188976377953D-1,-8.194616582410D-1,              109P     89
-8.194616582410D-1,8.194616582410D-1,8.194616582410D-1,1D0,1D0,      109P     90
1D0,1D0,-8.188976377953D-1,-8.194616582410D-1,1.062992125984D0,      109P     91
8.188976377953D-1,-8.194616582410D-1,1.062992125984D0,               109P     92
-8.188976377953D-1,8.194616582410D-1,1.062992125984D0,               109P     93
8.188976377953D-1,8.194616582410D-1,1.062992125984D0,                109P     94
-8.188976377953D-1,8.188976377953D-1,-8.194616582410D-1,             109P     95
8.194616582410D-1;                                                   109P     96
508,2,0,79,3,0,0,0,79,4,0,0;                                         111P     97
508,2,0,79,9,1,0,0,79,10,1,0;                                        113P     98
510,109,2,0,111,113;                                                 115P     99
110,0D0,0D0,1.062992125984D0,0D0,0D0,2.062992125984D0;               117P    100
110,5.905511811024D-1,0D0,3D-1,5.905511811024D-1,0D0,                119P    101
1.077952755906D0;                                                    119P    102
120,117,119,-6.283185307180D-2,3.204424506662D0;                     121P    103
508,4,0,79,9,0,0,0,79,11,1,0,0,79,7,1,0,0,79,12,0,0;                 123P    104
510,121,1,0,123;                                                     125P    105
110,0D0,0D0,1.062992125984D0,0D0,0D0,2.062992125984D0;               127P    106
110,5.905511811024D-1,0D0,3D-1,5.905511811024D-1,0D0,                129P    107
1.077952755906D0;                                                    129P    108
120,127,129,3.078760800518D0,6.346017160251D0;                       131P    109
508,4,0,79,10,0,0,0,79,12,1,0,0,79,8,1,0,0,79,11,0,0;                133P    110
510,131,1,0,133;                                                     135P    111
128,1,1,1,1,0,0,1,0,0,-6.141732283465D-1,-6.141732283465D-1,         137P    112
6.141732283465D-1,6.141732283465D-1,-6.146790557381D-1,              137P    113
-6.146790557381D-1,6.146790557381D-1,6.146790557381D-1,1D0,1D0,      137P    114
1D0,1D0,-6.141732283465D-1,-6.146790557381D-1,3.149606299213D-1,     137P    115
6.141732283465D-1,-6.146790557381D-1,3.149606299213D-1,              137P    116
-6.141732283465D-1,6.146790557381D-1,3.149606299213D-1,              137P    117
6.141732283465D-1,6.146790557381D-1,3.149606299213D-1,               137P    118
-6.141732283465D-1,6.141732283465D-1,-6.146790557381D-1,             137P    119
6.146790557381D-1;                                                   137P    120
508,2,0,79,7,0,0,0,79,8,0,0;                                         139P    121
508,2,0,79,15,0,0,0,79,16,0,0;                                       141P    122
510,137,2,0,139,141;                                                 143P    123
110,0D0,0D0,1.227755905512D0,0D0,0D0,2.277559055118D-1;              145P    124
110,3.346456692913D-1,0D0,3.212598425197D-1,3.346456692913D-1,       147P    125
0D0,-6.299212598425D-3;                                              147P    126
120,145,147,-6.283185307180D-2,3.204424506662D0;                     149P    127
508,4,0,79,13,0,0,0,79,17,0,0,0,79,15,1,0,0,79,18,1,0;               151P    128
510,149,1,0,151;                                                     153P    129
110,0D0,0D0,1.227755905512D0,0D0,0D0,2.277559055118D-1;              155P    130
110,3.346456692913D-1,0D0,3.212598425197D-1,3.346456692913D-1,       157P    131
0D0,-6.299212598425D-3;                                              157P    132
120,155,157,-3.204424506662D0,6.283185307180D-2;                     159P    133
508,4,0,79,14,0,0,0,79,18,0,0,0,79,16,1,0,0,79,17,1,0;               161P    134
510,159,1,0,161;                                                     163P    135
514,9,87,0,97,1,107,1,115,1,125,0,135,0,143,1,153,0,163,0;           165P    136
186,165,1,0;                                                         167P    137
S      1G      4D    168P    137                                        T      1
