ISO-10303-21;
HEADER;
FILE_DESCRIPTION((''),'2;1');
FILE_NAME('155365_SW','2011-05-05T',('banengservice'),('BANNER ENGINEERING'),
'PRO/ENGINEER BY PARAMETRIC TECHNOLOGY CORPORATION, 2009141',
'PRO/ENGINEER BY PARAMETRIC TECHNOLOGY CORPORATION, 2009141','');
FILE_SCHEMA(('CONFIG_CONTROL_DESIGN'));
ENDSEC;
DATA;
#1=DIRECTION('',(9.365899088028E-1,0.E0,-3.504273715461E-1));
#2=VECTOR('',#1,1.263263244210E0);
#3=CARTESIAN_POINT('',(3.769258676205E-1,0.E0,6.3E-1));
#4=LINE('',#3,#2);
#5=CARTESIAN_POINT('',(1.49E0,0.E0,0.E0));
#6=DIRECTION('',(0.E0,1.E0,0.E0));
#7=DIRECTION('',(3.504273715461E-1,0.E0,9.365899088028E-1));
#8=AXIS2_PLACEMENT_3D('',#5,#6,#7);
#10=DIRECTION('',(-9.396926207859E-1,0.E0,-3.420201433257E-1));
#11=VECTOR('',#10,1.263263244210E0);
#12=CARTESIAN_POINT('',(1.558404028665E0,0.E0,-1.879385241572E-1));
#13=LINE('',#12,#11);
#14=CARTESIAN_POINT('',(1.49E0,0.E0,0.E0));
#15=DIRECTION('',(0.E0,1.E0,0.E0));
#16=DIRECTION('',(0.E0,0.E0,1.E0));
#17=AXIS2_PLACEMENT_3D('',#14,#15,#16);
#19=CARTESIAN_POINT('',(1.49E0,0.E0,0.E0));
#20=DIRECTION('',(0.E0,1.E0,0.E0));
#21=DIRECTION('',(0.E0,0.E0,-1.E0));
#22=AXIS2_PLACEMENT_3D('',#19,#20,#21);
#24=CARTESIAN_POINT('',(5.723704650254E-1,0.E0,-2.458780928474E-1));
#25=DIRECTION('',(0.E0,1.E0,0.E0));
#26=DIRECTION('',(9.659258262891E-1,0.E0,2.588190451025E-1));
#27=AXIS2_PLACEMENT_3D('',#24,#25,#26);
#29=CARTESIAN_POINT('',(1.49E0,0.E0,0.E0));
#30=DIRECTION('',(0.E0,1.E0,0.E0));
#31=DIRECTION('',(-9.659258262891E-1,0.E0,-2.588190451025E-1));
#32=AXIS2_PLACEMENT_3D('',#29,#30,#31);
#34=CARTESIAN_POINT('',(5.723704650254E-1,0.E0,2.458780928474E-1));
#35=DIRECTION('',(0.E0,1.E0,0.E0));
#36=DIRECTION('',(-9.659258262891E-1,0.E0,2.588190451025E-1));
#37=AXIS2_PLACEMENT_3D('',#34,#35,#36);
#39=CARTESIAN_POINT('',(1.49E0,0.E0,0.E0));
#40=DIRECTION('',(0.E0,1.E0,0.E0));
#41=DIRECTION('',(-9.659258262891E-1,0.E0,-2.588190451025E-1));
#42=AXIS2_PLACEMENT_3D('',#39,#40,#41);
#44=DIRECTION('',(1.E0,0.E0,0.E0));
#45=VECTOR('',#44,1.E-1);
#46=CARTESIAN_POINT('',(-1.E-1,9.75E-1,-6.2E-1));
#47=LINE('',#46,#45);
#48=DIRECTION('',(1.E0,0.E0,0.E0));
#49=VECTOR('',#48,3.213248799708E-1);
#50=CARTESIAN_POINT('',(5.E-2,0.E0,-6.2E-1));
#51=LINE('',#50,#49);
#52=DIRECTION('',(0.E0,1.E0,0.E0));
#53=VECTOR('',#52,1.05E-1);
#54=CARTESIAN_POINT('',(3.713248799708E-1,0.E0,-6.2E-1));
#55=LINE('',#54,#53);
#56=DIRECTION('',(0.E0,1.E0,0.E0));
#57=VECTOR('',#56,8.2E-1);
#58=CARTESIAN_POINT('',(0.E0,1.55E-1,-6.2E-1));
#59=LINE('',#58,#57);
#60=CARTESIAN_POINT('',(0.E0,9.75E-1,5.E-3));
#61=DIRECTION('',(1.E0,0.E0,0.E0));
#62=DIRECTION('',(0.E0,0.E0,-1.E0));
#63=AXIS2_PLACEMENT_3D('',#60,#61,#62);
#65=DIRECTION('',(0.E0,1.E0,0.E0));
#66=VECTOR('',#65,8.2E-1);
#67=CARTESIAN_POINT('',(0.E0,1.55E-1,6.3E-1));
#68=LINE('',#67,#66);
#69=CARTESIAN_POINT('',(0.E0,9.75E-1,5.E-3));
#70=DIRECTION('',(1.E0,0.E0,0.E0));
#71=DIRECTION('',(0.E0,0.E0,1.E0));
#72=AXIS2_PLACEMENT_3D('',#69,#70,#71);
#74=CARTESIAN_POINT('',(0.E0,9.75E-1,5.E-3));
#75=DIRECTION('',(1.E0,0.E0,0.E0));
#76=DIRECTION('',(0.E0,0.E0,-1.E0));
#77=AXIS2_PLACEMENT_3D('',#74,#75,#76);
#79=DIRECTION('',(0.E0,0.E0,1.E0));
#80=VECTOR('',#79,1.25E0);
#81=CARTESIAN_POINT('',(5.E-2,1.05E-1,-6.2E-1));
#82=LINE('',#81,#80);
#83=CARTESIAN_POINT('',(5.E-2,1.55E-1,6.3E-1));
#84=DIRECTION('',(0.E0,0.E0,-1.E0));
#85=DIRECTION('',(0.E0,-1.E0,0.E0));
#86=AXIS2_PLACEMENT_3D('',#83,#84,#85);
#88=DIRECTION('',(0.E0,0.E0,1.E0));
#89=VECTOR('',#88,1.25E0);
#90=CARTESIAN_POINT('',(0.E0,1.55E-1,-6.2E-1));
#91=LINE('',#90,#89);
#92=CARTESIAN_POINT('',(5.E-2,1.55E-1,-6.2E-1));
#93=DIRECTION('',(0.E0,0.E0,-1.E0));
#94=DIRECTION('',(0.E0,-1.E0,0.E0));
#95=AXIS2_PLACEMENT_3D('',#92,#93,#94);
#97=DIRECTION('',(-1.E0,0.E0,0.E0));
#98=VECTOR('',#97,3.213248799708E-1);
#99=CARTESIAN_POINT('',(3.713248799708E-1,1.05E-1,-6.2E-1));
#100=LINE('',#99,#98);
#101=DIRECTION('',(-9.396926207859E-1,0.E0,-3.420201433257E-1));
#102=VECTOR('',#101,1.263263244210E0);
#103=CARTESIAN_POINT('',(1.558404028665E0,1.05E-1,-1.879385241572E-1));
#104=LINE('',#103,#102);
#105=CARTESIAN_POINT('',(1.49E0,1.05E-1,0.E0));
#106=DIRECTION('',(0.E0,1.E0,0.E0));
#107=DIRECTION('',(3.504273715461E-1,0.E0,9.365899088028E-1));
#108=AXIS2_PLACEMENT_3D('',#105,#106,#107);
#110=DIRECTION('',(9.365899088028E-1,0.E0,-3.504273715461E-1));
#111=VECTOR('',#110,1.263263244210E0);
#112=CARTESIAN_POINT('',(3.769258676205E-1,1.05E-1,6.3E-1));
#113=LINE('',#112,#111);
#114=DIRECTION('',(1.E0,0.E0,0.E0));
#115=VECTOR('',#114,3.269258676205E-1);
#116=CARTESIAN_POINT('',(5.E-2,1.05E-1,6.3E-1));
#117=LINE('',#116,#115);
#118=CARTESIAN_POINT('',(1.49E0,1.05E-1,0.E0));
#119=DIRECTION('',(0.E0,1.E0,0.E0));
#120=DIRECTION('',(0.E0,0.E0,1.E0));
#121=AXIS2_PLACEMENT_3D('',#118,#119,#120);
#123=CARTESIAN_POINT('',(1.49E0,1.05E-1,0.E0));
#124=DIRECTION('',(0.E0,1.E0,0.E0));
#125=DIRECTION('',(0.E0,0.E0,-1.E0));
#126=AXIS2_PLACEMENT_3D('',#123,#124,#125);
#128=CARTESIAN_POINT('',(5.723704650254E-1,1.05E-1,-2.458780928474E-1));
#129=DIRECTION('',(0.E0,1.E0,0.E0));
#130=DIRECTION('',(9.659258262891E-1,0.E0,2.588190451025E-1));
#131=AXIS2_PLACEMENT_3D('',#128,#129,#130);
#133=CARTESIAN_POINT('',(1.49E0,1.05E-1,0.E0));
#134=DIRECTION('',(0.E0,1.E0,0.E0));
#135=DIRECTION('',(-9.659258262891E-1,0.E0,-2.588190451025E-1));
#136=AXIS2_PLACEMENT_3D('',#133,#134,#135);
#138=CARTESIAN_POINT('',(5.723704650254E-1,1.05E-1,2.458780928474E-1));
#139=DIRECTION('',(0.E0,1.E0,0.E0));
#140=DIRECTION('',(-9.659258262891E-1,0.E0,2.588190451025E-1));
#141=AXIS2_PLACEMENT_3D('',#138,#139,#140);
#143=CARTESIAN_POINT('',(1.49E0,1.05E-1,0.E0));
#144=DIRECTION('',(0.E0,1.E0,0.E0));
#145=DIRECTION('',(-9.659258262891E-1,0.E0,-2.588190451025E-1));
#146=AXIS2_PLACEMENT_3D('',#143,#144,#145);
#148=DIRECTION('',(0.E0,1.E0,0.E0));
#149=VECTOR('',#148,1.05E-1);
#150=CARTESIAN_POINT('',(1.558404028665E0,0.E0,-1.879385241572E-1));
#151=LINE('',#150,#149);
#152=DIRECTION('',(0.E0,1.E0,0.E0));
#153=VECTOR('',#152,1.05E-1);
#154=CARTESIAN_POINT('',(1.560085474309E0,0.E0,1.873179817606E-1));
#155=LINE('',#154,#153);
#156=DIRECTION('',(0.E0,1.E0,0.E0));
#157=VECTOR('',#156,1.05E-1);
#158=CARTESIAN_POINT('',(3.769258676205E-1,0.E0,6.3E-1));
#159=LINE('',#158,#157);
#160=DIRECTION('',(1.E0,0.E0,0.E0));
#161=VECTOR('',#160,1.E-1);
#162=CARTESIAN_POINT('',(-1.E-1,9.75E-1,6.3E-1));
#163=LINE('',#162,#161);
#164=DIRECTION('',(-1.E0,0.E0,0.E0));
#165=VECTOR('',#164,3.269258676205E-1);
#166=CARTESIAN_POINT('',(3.769258676205E-1,0.E0,6.3E-1));
#167=LINE('',#166,#165);
#168=DIRECTION('',(0.E0,1.E0,0.E0));
#169=VECTOR('',#168,8.25E-1);
#170=CARTESIAN_POINT('',(-1.E-1,1.5E-1,6.3E-1));
#171=LINE('',#170,#169);
#172=DIRECTION('',(0.E0,0.E0,1.E0));
#173=VECTOR('',#172,1.25E0);
#174=CARTESIAN_POINT('',(5.E-2,0.E0,-6.2E-1));
#175=LINE('',#174,#173);
#176=CARTESIAN_POINT('',(5.E-2,1.5E-1,-6.2E-1));
#177=DIRECTION('',(0.E0,0.E0,-1.E0));
#178=DIRECTION('',(0.E0,-1.E0,0.E0));
#179=AXIS2_PLACEMENT_3D('',#176,#177,#178);
#181=DIRECTION('',(0.E0,0.E0,1.E0));
#182=VECTOR('',#181,1.25E0);
#183=CARTESIAN_POINT('',(-1.E-1,1.5E-1,-6.2E-1));
#184=LINE('',#183,#182);
#185=CARTESIAN_POINT('',(5.E-2,1.5E-1,6.3E-1));
#186=DIRECTION('',(0.E0,0.E0,-1.E0));
#187=DIRECTION('',(0.E0,-1.E0,0.E0));
#188=AXIS2_PLACEMENT_3D('',#185,#186,#187);
#190=CARTESIAN_POINT('',(-1.E-1,9.75E-1,5.E-3));
#191=DIRECTION('',(-1.E0,0.E0,0.E0));
#192=DIRECTION('',(0.E0,0.E0,1.E0));
#193=AXIS2_PLACEMENT_3D('',#190,#191,#192);
#195=DIRECTION('',(0.E0,1.E0,0.E0));
#196=VECTOR('',#195,8.25E-1);
#197=CARTESIAN_POINT('',(-1.E-1,1.5E-1,-6.2E-1));
#198=LINE('',#197,#196);
#199=CARTESIAN_POINT('',(-1.E-1,9.75E-1,5.E-3));
#200=DIRECTION('',(1.E0,0.E0,0.E0));
#201=DIRECTION('',(0.E0,0.E0,1.E0));
#202=AXIS2_PLACEMENT_3D('',#199,#200,#201);
#204=CARTESIAN_POINT('',(-1.E-1,9.75E-1,5.E-3));
#205=DIRECTION('',(1.E0,0.E0,0.E0));
#206=DIRECTION('',(0.E0,0.E0,-1.E0));
#207=AXIS2_PLACEMENT_3D('',#204,#205,#206);
#209=DIRECTION('',(-1.E0,0.E0,0.E0));
#210=VECTOR('',#209,1.E-1);
#211=CARTESIAN_POINT('',(0.E0,9.75E-1,4.425E-1));
#212=LINE('',#211,#210);
#213=DIRECTION('',(-1.E0,0.E0,0.E0));
#214=VECTOR('',#213,1.E-1);
#215=CARTESIAN_POINT('',(0.E0,9.75E-1,-4.325E-1));
#216=LINE('',#215,#214);
#217=DIRECTION('',(0.E0,-1.E0,0.E0));
#218=VECTOR('',#217,1.05E-1);
#219=CARTESIAN_POINT('',(1.49E0,1.05E-1,9.E-2));
#220=LINE('',#219,#218);
#221=DIRECTION('',(0.E0,-1.E0,0.E0));
#222=VECTOR('',#221,1.05E-1);
#223=CARTESIAN_POINT('',(1.49E0,1.05E-1,-9.E-2));
#224=LINE('',#223,#222);
#225=DIRECTION('',(0.E0,-1.E0,0.E0));
#226=VECTOR('',#225,1.05E-1);
#227=CARTESIAN_POINT('',(6.593037893914E-1,1.05E-1,-2.225843787882E-1));
#228=LINE('',#227,#226);
#229=DIRECTION('',(0.E0,-1.E0,0.E0));
#230=VECTOR('',#229,1.05E-1);
#231=CARTESIAN_POINT('',(4.854371406594E-1,1.05E-1,-2.691718069066E-1));
#232=LINE('',#231,#230);
#233=DIRECTION('',(0.E0,-1.E0,0.E0));
#234=VECTOR('',#233,1.05E-1);
#235=CARTESIAN_POINT('',(4.854371406594E-1,1.05E-1,2.691718069066E-1));
#236=LINE('',#235,#234);
#237=DIRECTION('',(0.E0,-1.E0,0.E0));
#238=VECTOR('',#237,1.05E-1);
#239=CARTESIAN_POINT('',(6.593037893914E-1,1.05E-1,2.225843787882E-1));
#240=LINE('',#239,#238);
#241=CARTESIAN_POINT('',(3.769258676205E-1,0.E0,6.3E-1));
#242=CARTESIAN_POINT('',(1.560085474309E0,0.E0,1.873179817606E-1));
#243=VERTEX_POINT('',#241);
#244=VERTEX_POINT('',#242);
#245=CARTESIAN_POINT('',(1.558404028665E0,0.E0,-1.879385241572E-1));
#246=VERTEX_POINT('',#245);
#247=CARTESIAN_POINT('',(3.713248799708E-1,0.E0,-6.2E-1));
#248=VERTEX_POINT('',#247);
#249=CARTESIAN_POINT('',(3.769258676205E-1,1.05E-1,6.3E-1));
#250=CARTESIAN_POINT('',(1.560085474309E0,1.05E-1,1.873179817606E-1));
#251=VERTEX_POINT('',#249);
#252=VERTEX_POINT('',#250);
#253=CARTESIAN_POINT('',(1.558404028665E0,1.05E-1,-1.879385241572E-1));
#254=VERTEX_POINT('',#253);
#255=CARTESIAN_POINT('',(3.713248799708E-1,1.05E-1,-6.2E-1));
#256=VERTEX_POINT('',#255);
#257=CARTESIAN_POINT('',(1.49E0,0.E0,9.E-2));
#258=CARTESIAN_POINT('',(1.49E0,0.E0,-9.E-2));
#259=VERTEX_POINT('',#257);
#260=VERTEX_POINT('',#258);
#261=CARTESIAN_POINT('',(1.49E0,1.05E-1,9.E-2));
#262=CARTESIAN_POINT('',(1.49E0,1.05E-1,-9.E-2));
#263=VERTEX_POINT('',#261);
#264=VERTEX_POINT('',#262);
#265=CARTESIAN_POINT('',(6.593037893914E-1,0.E0,-2.225843787882E-1));
#266=CARTESIAN_POINT('',(4.854371406594E-1,0.E0,-2.691718069066E-1));
#267=VERTEX_POINT('',#265);
#268=VERTEX_POINT('',#266);
#269=CARTESIAN_POINT('',(4.854371406594E-1,0.E0,2.691718069066E-1));
#270=VERTEX_POINT('',#269);
#271=CARTESIAN_POINT('',(6.593037893914E-1,0.E0,2.225843787882E-1));
#272=VERTEX_POINT('',#271);
#273=CARTESIAN_POINT('',(6.593037893914E-1,1.05E-1,-2.225843787882E-1));
#274=CARTESIAN_POINT('',(4.854371406594E-1,1.05E-1,-2.691718069066E-1));
#275=VERTEX_POINT('',#273);
#276=VERTEX_POINT('',#274);
#277=CARTESIAN_POINT('',(4.854371406594E-1,1.05E-1,2.691718069066E-1));
#278=VERTEX_POINT('',#277);
#279=CARTESIAN_POINT('',(6.593037893914E-1,1.05E-1,2.225843787882E-1));
#280=VERTEX_POINT('',#279);
#281=CARTESIAN_POINT('',(-1.E-1,9.75E-1,4.425E-1));
#282=CARTESIAN_POINT('',(-1.E-1,9.75E-1,-4.325E-1));
#283=VERTEX_POINT('',#281);
#284=VERTEX_POINT('',#282);
#285=CARTESIAN_POINT('',(0.E0,9.75E-1,4.425E-1));
#286=CARTESIAN_POINT('',(0.E0,9.75E-1,-4.325E-1));
#287=VERTEX_POINT('',#285);
#288=VERTEX_POINT('',#286);
#289=CARTESIAN_POINT('',(5.E-2,1.05E-1,-6.2E-1));
#290=CARTESIAN_POINT('',(5.E-2,1.05E-1,6.3E-1));
#291=VERTEX_POINT('',#289);
#292=VERTEX_POINT('',#290);
#293=CARTESIAN_POINT('',(0.E0,1.55E-1,-6.2E-1));
#294=CARTESIAN_POINT('',(0.E0,1.55E-1,6.3E-1));
#295=VERTEX_POINT('',#293);
#296=VERTEX_POINT('',#294);
#297=CARTESIAN_POINT('',(5.E-2,0.E0,-6.2E-1));
#298=CARTESIAN_POINT('',(5.E-2,0.E0,6.3E-1));
#299=VERTEX_POINT('',#297);
#300=VERTEX_POINT('',#298);
#301=CARTESIAN_POINT('',(-1.E-1,1.5E-1,-6.2E-1));
#302=CARTESIAN_POINT('',(-1.E-1,1.5E-1,6.3E-1));
#303=VERTEX_POINT('',#301);
#304=VERTEX_POINT('',#302);
#305=CARTESIAN_POINT('',(0.E0,9.75E-1,-6.2E-1));
#306=CARTESIAN_POINT('',(0.E0,9.75E-1,6.3E-1));
#307=VERTEX_POINT('',#305);
#308=VERTEX_POINT('',#306);
#309=CARTESIAN_POINT('',(-1.E-1,9.75E-1,6.3E-1));
#310=VERTEX_POINT('',#309);
#311=CARTESIAN_POINT('',(-1.E-1,9.75E-1,-6.2E-1));
#312=VERTEX_POINT('',#311);
#313=CARTESIAN_POINT('',(0.E0,0.E0,0.E0));
#314=DIRECTION('',(0.E0,1.E0,0.E0));
#315=DIRECTION('',(0.E0,0.E0,1.E0));
#316=AXIS2_PLACEMENT_3D('',#313,#314,#315);
#317=PLANE('',#316);
#319=ORIENTED_EDGE('',*,*,#318,.F.);
#321=ORIENTED_EDGE('',*,*,#320,.T.);
#323=ORIENTED_EDGE('',*,*,#322,.F.);
#325=ORIENTED_EDGE('',*,*,#324,.T.);
#327=ORIENTED_EDGE('',*,*,#326,.T.);
#329=ORIENTED_EDGE('',*,*,#328,.T.);
#330=EDGE_LOOP('',(#319,#321,#323,#325,#327,#329));
#331=FACE_OUTER_BOUND('',#330,.F.);
#333=ORIENTED_EDGE('',*,*,#332,.F.);
#335=ORIENTED_EDGE('',*,*,#334,.F.);
#336=EDGE_LOOP('',(#333,#335));
#337=FACE_BOUND('',#336,.F.);
#339=ORIENTED_EDGE('',*,*,#338,.F.);
#341=ORIENTED_EDGE('',*,*,#340,.T.);
#343=ORIENTED_EDGE('',*,*,#342,.F.);
#345=ORIENTED_EDGE('',*,*,#344,.F.);
#346=EDGE_LOOP('',(#339,#341,#343,#345));
#347=FACE_BOUND('',#346,.F.);
#348=ADVANCED_FACE('',(#331,#337,#347),#317,.F.);
#349=CARTESIAN_POINT('',(3.713248799708E-1,0.E0,-6.2E-1));
#350=DIRECTION('',(0.E0,0.E0,-1.E0));
#351=DIRECTION('',(-1.E0,0.E0,0.E0));
#352=AXIS2_PLACEMENT_3D('',#349,#350,#351);
#353=PLANE('',#352);
#355=ORIENTED_EDGE('',*,*,#354,.F.);
#357=ORIENTED_EDGE('',*,*,#356,.F.);
#359=ORIENTED_EDGE('',*,*,#358,.F.);
#360=ORIENTED_EDGE('',*,*,#318,.T.);
#362=ORIENTED_EDGE('',*,*,#361,.T.);
#364=ORIENTED_EDGE('',*,*,#363,.T.);
#366=ORIENTED_EDGE('',*,*,#365,.T.);
#368=ORIENTED_EDGE('',*,*,#367,.T.);
#369=EDGE_LOOP('',(#355,#357,#359,#360,#362,#364,#366,#368));
#370=FACE_OUTER_BOUND('',#369,.F.);
#371=ADVANCED_FACE('',(#370),#353,.T.);
#372=CARTESIAN_POINT('',(-1.036189145177E-1,9.75E-1,5.E-3));
#373=DIRECTION('',(1.E0,0.E0,0.E0));
#374=DIRECTION('',(0.E0,0.E0,1.E0));
#375=AXIS2_PLACEMENT_3D('',#372,#373,#374);
#376=CYLINDRICAL_SURFACE('',#375,6.25E-1);
#378=ORIENTED_EDGE('',*,*,#377,.T.);
#380=ORIENTED_EDGE('',*,*,#379,.F.);
#382=ORIENTED_EDGE('',*,*,#381,.T.);
#383=ORIENTED_EDGE('',*,*,#354,.T.);
#384=EDGE_LOOP('',(#378,#380,#382,#383));
#385=FACE_OUTER_BOUND('',#384,.F.);
#386=ADVANCED_FACE('',(#385),#376,.T.);
#387=CARTESIAN_POINT('',(0.E0,0.E0,6.3E-1));
#388=DIRECTION('',(1.E0,0.E0,0.E0));
#389=DIRECTION('',(0.E0,0.E0,-1.E0));
#390=AXIS2_PLACEMENT_3D('',#387,#388,#389);
#391=PLANE('',#390);
#392=ORIENTED_EDGE('',*,*,#377,.F.);
#393=ORIENTED_EDGE('',*,*,#367,.F.);
#395=ORIENTED_EDGE('',*,*,#394,.T.);
#397=ORIENTED_EDGE('',*,*,#396,.T.);
#398=EDGE_LOOP('',(#392,#393,#395,#397));
#399=FACE_OUTER_BOUND('',#398,.F.);
#401=ORIENTED_EDGE('',*,*,#400,.T.);
#403=ORIENTED_EDGE('',*,*,#402,.T.);
#404=EDGE_LOOP('',(#401,#403));
#405=FACE_BOUND('',#404,.F.);
#406=ADVANCED_FACE('',(#399,#405),#391,.T.);
#407=CARTESIAN_POINT('',(5.E-2,1.55E-1,-6.2E-1));
#408=DIRECTION('',(0.E0,0.E0,-1.E0));
#409=DIRECTION('',(0.E0,-1.E0,0.E0));
#410=AXIS2_PLACEMENT_3D('',#407,#408,#409);
#411=CYLINDRICAL_SURFACE('',#410,5.E-2);
#413=ORIENTED_EDGE('',*,*,#412,.T.);
#415=ORIENTED_EDGE('',*,*,#414,.T.);
#416=ORIENTED_EDGE('',*,*,#394,.F.);
#417=ORIENTED_EDGE('',*,*,#365,.F.);
#418=EDGE_LOOP('',(#413,#415,#416,#417));
#419=FACE_OUTER_BOUND('',#418,.F.);
#420=ADVANCED_FACE('',(#419),#411,.F.);
#421=CARTESIAN_POINT('',(0.E0,1.05E-1,0.E0));
#422=DIRECTION('',(0.E0,1.E0,0.E0));
#423=DIRECTION('',(0.E0,0.E0,1.E0));
#424=AXIS2_PLACEMENT_3D('',#421,#422,#423);
#425=PLANE('',#424);
#426=ORIENTED_EDGE('',*,*,#412,.F.);
#427=ORIENTED_EDGE('',*,*,#363,.F.);
#429=ORIENTED_EDGE('',*,*,#428,.F.);
#431=ORIENTED_EDGE('',*,*,#430,.F.);
#433=ORIENTED_EDGE('',*,*,#432,.F.);
#435=ORIENTED_EDGE('',*,*,#434,.F.);
#436=EDGE_LOOP('',(#426,#427,#429,#431,#433,#435));
#437=FACE_OUTER_BOUND('',#436,.F.);
#439=ORIENTED_EDGE('',*,*,#438,.T.);
#441=ORIENTED_EDGE('',*,*,#440,.T.);
#442=EDGE_LOOP('',(#439,#441));
#443=FACE_BOUND('',#442,.F.);
#445=ORIENTED_EDGE('',*,*,#444,.T.);
#447=ORIENTED_EDGE('',*,*,#446,.T.);
#449=ORIENTED_EDGE('',*,*,#448,.T.);
#451=ORIENTED_EDGE('',*,*,#450,.F.);
#452=EDGE_LOOP('',(#445,#447,#449,#451));
#453=FACE_BOUND('',#452,.F.);
#454=ADVANCED_FACE('',(#437,#443,#453),#425,.T.);
#455=CARTESIAN_POINT('',(1.558404028665E0,0.E0,-1.879385241572E-1));
#456=DIRECTION('',(3.420201433257E-1,0.E0,-9.396926207859E-1));
#457=DIRECTION('',(-9.396926207859E-1,0.E0,-3.420201433257E-1));
#458=AXIS2_PLACEMENT_3D('',#455,#456,#457);
#459=PLANE('',#458);
#460=ORIENTED_EDGE('',*,*,#328,.F.);
#462=ORIENTED_EDGE('',*,*,#461,.T.);
#463=ORIENTED_EDGE('',*,*,#428,.T.);
#464=ORIENTED_EDGE('',*,*,#361,.F.);
#465=EDGE_LOOP('',(#460,#462,#463,#464));
#466=FACE_OUTER_BOUND('',#465,.F.);
#467=ADVANCED_FACE('',(#466),#459,.T.);
#468=CARTESIAN_POINT('',(1.49E0,0.E0,0.E0));
#469=DIRECTION('',(0.E0,1.E0,0.E0));
#470=DIRECTION('',(0.E0,0.E0,1.E0));
#471=AXIS2_PLACEMENT_3D('',#468,#469,#470);
#472=CYLINDRICAL_SURFACE('',#471,2.E-1);
#473=ORIENTED_EDGE('',*,*,#326,.F.);
#475=ORIENTED_EDGE('',*,*,#474,.T.);
#476=ORIENTED_EDGE('',*,*,#430,.T.);
#477=ORIENTED_EDGE('',*,*,#461,.F.);
#478=EDGE_LOOP('',(#473,#475,#476,#477));
#479=FACE_OUTER_BOUND('',#478,.F.);
#480=ADVANCED_FACE('',(#479),#472,.T.);
#481=CARTESIAN_POINT('',(3.769258676205E-1,0.E0,6.3E-1));
#482=DIRECTION('',(3.504273715461E-1,0.E0,9.365899088028E-1));
#483=DIRECTION('',(9.365899088028E-1,0.E0,-3.504273715461E-1));
#484=AXIS2_PLACEMENT_3D('',#481,#482,#483);
#485=PLANE('',#484);
#486=ORIENTED_EDGE('',*,*,#324,.F.);
#488=ORIENTED_EDGE('',*,*,#487,.T.);
#489=ORIENTED_EDGE('',*,*,#432,.T.);
#490=ORIENTED_EDGE('',*,*,#474,.F.);
#491=EDGE_LOOP('',(#486,#488,#489,#490));
#492=FACE_OUTER_BOUND('',#491,.F.);
#493=ADVANCED_FACE('',(#492),#485,.T.);
#494=CARTESIAN_POINT('',(0.E0,0.E0,6.3E-1));
#495=DIRECTION('',(0.E0,0.E0,1.E0));
#496=DIRECTION('',(1.E0,0.E0,0.E0));
#497=AXIS2_PLACEMENT_3D('',#494,#495,#496);
#498=PLANE('',#497);
#499=ORIENTED_EDGE('',*,*,#379,.T.);
#500=ORIENTED_EDGE('',*,*,#396,.F.);
#501=ORIENTED_EDGE('',*,*,#414,.F.);
#502=ORIENTED_EDGE('',*,*,#434,.T.);
#503=ORIENTED_EDGE('',*,*,#487,.F.);
#504=ORIENTED_EDGE('',*,*,#322,.T.);
#506=ORIENTED_EDGE('',*,*,#505,.T.);
#508=ORIENTED_EDGE('',*,*,#507,.T.);
#509=EDGE_LOOP('',(#499,#500,#501,#502,#503,#504,#506,#508));
#510=FACE_OUTER_BOUND('',#509,.F.);
#511=ADVANCED_FACE('',(#510),#498,.T.);
#512=CARTESIAN_POINT('',(5.E-2,1.5E-1,-6.2E-1));
#513=DIRECTION('',(0.E0,0.E0,-1.E0));
#514=DIRECTION('',(0.E0,-1.E0,0.E0));
#515=AXIS2_PLACEMENT_3D('',#512,#513,#514);
#516=CYLINDRICAL_SURFACE('',#515,1.5E-1);
#517=ORIENTED_EDGE('',*,*,#320,.F.);
#518=ORIENTED_EDGE('',*,*,#358,.T.);
#520=ORIENTED_EDGE('',*,*,#519,.T.);
#521=ORIENTED_EDGE('',*,*,#505,.F.);
#522=EDGE_LOOP('',(#517,#518,#520,#521));
#523=FACE_OUTER_BOUND('',#522,.F.);
#524=ADVANCED_FACE('',(#523),#516,.T.);
#525=CARTESIAN_POINT('',(-1.E-1,0.E0,-6.2E-1));
#526=DIRECTION('',(-1.E0,0.E0,0.E0));
#527=DIRECTION('',(0.E0,0.E0,1.E0));
#528=AXIS2_PLACEMENT_3D('',#525,#526,#527);
#529=PLANE('',#528);
#530=ORIENTED_EDGE('',*,*,#381,.F.);
#531=ORIENTED_EDGE('',*,*,#507,.F.);
#532=ORIENTED_EDGE('',*,*,#519,.F.);
#533=ORIENTED_EDGE('',*,*,#356,.T.);
#534=EDGE_LOOP('',(#530,#531,#532,#533));
#535=FACE_OUTER_BOUND('',#534,.F.);
#537=ORIENTED_EDGE('',*,*,#536,.F.);
#539=ORIENTED_EDGE('',*,*,#538,.F.);
#540=EDGE_LOOP('',(#537,#539));
#541=FACE_BOUND('',#540,.F.);
#542=ADVANCED_FACE('',(#535,#541),#529,.T.);
#543=CARTESIAN_POINT('',(0.E0,9.75E-1,5.E-3));
#544=DIRECTION('',(1.E0,0.E0,0.E0));
#545=DIRECTION('',(0.E0,0.E0,1.E0));
#546=AXIS2_PLACEMENT_3D('',#543,#544,#545);
#547=CYLINDRICAL_SURFACE('',#546,4.375E-1);
#548=ORIENTED_EDGE('',*,*,#536,.T.);
#550=ORIENTED_EDGE('',*,*,#549,.F.);
#551=ORIENTED_EDGE('',*,*,#400,.F.);
#553=ORIENTED_EDGE('',*,*,#552,.T.);
#554=EDGE_LOOP('',(#548,#550,#551,#553));
#555=FACE_OUTER_BOUND('',#554,.F.);
#556=ADVANCED_FACE('',(#555),#547,.F.);
#557=CARTESIAN_POINT('',(0.E0,9.75E-1,5.E-3));
#558=DIRECTION('',(1.E0,0.E0,0.E0));
#559=DIRECTION('',(0.E0,0.E0,1.E0));
#560=AXIS2_PLACEMENT_3D('',#557,#558,#559);
#561=CYLINDRICAL_SURFACE('',#560,4.375E-1);
#562=ORIENTED_EDGE('',*,*,#538,.T.);
#563=ORIENTED_EDGE('',*,*,#552,.F.);
#564=ORIENTED_EDGE('',*,*,#402,.F.);
#565=ORIENTED_EDGE('',*,*,#549,.T.);
#566=EDGE_LOOP('',(#562,#563,#564,#565));
#567=FACE_OUTER_BOUND('',#566,.F.);
#568=ADVANCED_FACE('',(#567),#561,.F.);
#569=CARTESIAN_POINT('',(1.49E0,1.05E-1,0.E0));
#570=DIRECTION('',(0.E0,1.E0,0.E0));
#571=DIRECTION('',(0.E0,0.E0,1.E0));
#572=AXIS2_PLACEMENT_3D('',#569,#570,#571);
#573=CYLINDRICAL_SURFACE('',#572,9.E-2);
#574=ORIENTED_EDGE('',*,*,#332,.T.);
#576=ORIENTED_EDGE('',*,*,#575,.F.);
#577=ORIENTED_EDGE('',*,*,#438,.F.);
#579=ORIENTED_EDGE('',*,*,#578,.T.);
#580=EDGE_LOOP('',(#574,#576,#577,#579));
#581=FACE_OUTER_BOUND('',#580,.F.);
#582=ADVANCED_FACE('',(#581),#573,.F.);
#583=CARTESIAN_POINT('',(1.49E0,1.05E-1,0.E0));
#584=DIRECTION('',(0.E0,1.E0,0.E0));
#585=DIRECTION('',(0.E0,0.E0,1.E0));
#586=AXIS2_PLACEMENT_3D('',#583,#584,#585);
#587=CYLINDRICAL_SURFACE('',#586,9.E-2);
#588=ORIENTED_EDGE('',*,*,#334,.T.);
#589=ORIENTED_EDGE('',*,*,#578,.F.);
#590=ORIENTED_EDGE('',*,*,#440,.F.);
#591=ORIENTED_EDGE('',*,*,#575,.T.);
#592=EDGE_LOOP('',(#588,#589,#590,#591));
#593=FACE_OUTER_BOUND('',#592,.F.);
#594=ADVANCED_FACE('',(#593),#587,.F.);
#595=CARTESIAN_POINT('',(5.723704650254E-1,1.05E-1,-2.458780928474E-1));
#596=DIRECTION('',(0.E0,1.E0,0.E0));
#597=DIRECTION('',(0.E0,0.E0,1.E0));
#598=AXIS2_PLACEMENT_3D('',#595,#596,#597);
#599=CYLINDRICAL_SURFACE('',#598,9.E-2);
#600=ORIENTED_EDGE('',*,*,#338,.T.);
#602=ORIENTED_EDGE('',*,*,#601,.F.);
#603=ORIENTED_EDGE('',*,*,#444,.F.);
#605=ORIENTED_EDGE('',*,*,#604,.T.);
#606=EDGE_LOOP('',(#600,#602,#603,#605));
#607=FACE_OUTER_BOUND('',#606,.F.);
#608=ADVANCED_FACE('',(#607),#599,.F.);
#609=CARTESIAN_POINT('',(1.49E0,1.05E-1,0.E0));
#610=DIRECTION('',(0.E0,1.E0,0.E0));
#611=DIRECTION('',(0.E0,0.E0,1.E0));
#612=AXIS2_PLACEMENT_3D('',#609,#610,#611);
#613=CYLINDRICAL_SURFACE('',#612,1.04E0);
#614=ORIENTED_EDGE('',*,*,#344,.T.);
#616=ORIENTED_EDGE('',*,*,#615,.F.);
#617=ORIENTED_EDGE('',*,*,#446,.F.);
#618=ORIENTED_EDGE('',*,*,#601,.T.);
#619=EDGE_LOOP('',(#614,#616,#617,#618));
#620=FACE_OUTER_BOUND('',#619,.F.);
#621=ADVANCED_FACE('',(#620),#613,.F.);
#622=CARTESIAN_POINT('',(5.723704650254E-1,1.05E-1,2.458780928474E-1));
#623=DIRECTION('',(0.E0,1.E0,0.E0));
#624=DIRECTION('',(0.E0,0.E0,1.E0));
#625=AXIS2_PLACEMENT_3D('',#622,#623,#624);
#626=CYLINDRICAL_SURFACE('',#625,9.E-2);
#627=ORIENTED_EDGE('',*,*,#342,.T.);
#629=ORIENTED_EDGE('',*,*,#628,.F.);
#630=ORIENTED_EDGE('',*,*,#448,.F.);
#631=ORIENTED_EDGE('',*,*,#615,.T.);
#632=EDGE_LOOP('',(#627,#629,#630,#631));
#633=FACE_OUTER_BOUND('',#632,.F.);
#634=ADVANCED_FACE('',(#633),#626,.F.);
#635=CARTESIAN_POINT('',(1.49E0,1.05E-1,0.E0));
#636=DIRECTION('',(0.E0,1.E0,0.E0));
#637=DIRECTION('',(0.E0,0.E0,1.E0));
#638=AXIS2_PLACEMENT_3D('',#635,#636,#637);
#639=CYLINDRICAL_SURFACE('',#638,8.6E-1);
#640=ORIENTED_EDGE('',*,*,#340,.F.);
#641=ORIENTED_EDGE('',*,*,#604,.F.);
#642=ORIENTED_EDGE('',*,*,#450,.T.);
#643=ORIENTED_EDGE('',*,*,#628,.T.);
#644=EDGE_LOOP('',(#640,#641,#642,#643));
#645=FACE_OUTER_BOUND('',#644,.F.);
#646=ADVANCED_FACE('',(#645),#639,.T.);
#647=CLOSED_SHELL('',(#348,#371,#386,#406,#420,#454,#467,#480,#493,#511,#524,
#542,#556,#568,#582,#594,#608,#621,#634,#646));
#648=MANIFOLD_SOLID_BREP('',#647);
#649=DIMENSIONAL_EXPONENTS(1.E0,0.E0,0.E0,0.E0,0.E0,0.E0,0.E0);
#650=(LENGTH_UNIT()NAMED_UNIT(*)SI_UNIT(.MILLI.,.METRE.));
#651=LENGTH_MEASURE_WITH_UNIT(LENGTH_MEASURE(2.54E1),#650);
#652=(CONVERSION_BASED_UNIT('INCH',#651)LENGTH_UNIT()NAMED_UNIT(#649));
#653=DIMENSIONAL_EXPONENTS(0.E0,0.E0,0.E0,0.E0,0.E0,0.E0,0.E0);
#654=(NAMED_UNIT(*)PLANE_ANGLE_UNIT()SI_UNIT($,.RADIAN.));
#655=PLANE_ANGLE_MEASURE_WITH_UNIT(PLANE_ANGLE_MEASURE(1.745329251994E-2),#654);
#656=(CONVERSION_BASED_UNIT('DEGREE',#655)NAMED_UNIT(#653)PLANE_ANGLE_UNIT());
#657=(NAMED_UNIT(*)SI_UNIT($,.STERADIAN.)SOLID_ANGLE_UNIT());
#658=UNCERTAINTY_MEASURE_WITH_UNIT(LENGTH_MEASURE(2.706965673998E-4),#652,
'closure',
'Maximum model space distance between geometric entities at asserted connectivities');
#659=(GEOMETRIC_REPRESENTATION_CONTEXT(3)GLOBAL_UNCERTAINTY_ASSIGNED_CONTEXT((
#658))GLOBAL_UNIT_ASSIGNED_CONTEXT((#652,#656,#657))REPRESENTATION_CONTEXT
('ID1','3'));
#661=APPLICATION_CONTEXT(
'CONFIGURATION CONTROLLED 3D DESIGNS OF MECHANICAL PARTS AND ASSEMBLIES');
#662=APPLICATION_PROTOCOL_DEFINITION('international standard',
'config_control_design',1994,#661);
#663=DESIGN_CONTEXT('',#661,'design');
#664=MECHANICAL_CONTEXT('',#661,'mechanical');
#665=PRODUCT('155365_SW','155365_SW','NOT SPECIFIED',(#664));
#666=PRODUCT_DEFINITION_FORMATION_WITH_SPECIFIED_SOURCE('','LAST_VERSION',#665,
.MADE.);
#670=PRODUCT_CATEGORY('part','');
#671=PRODUCT_RELATED_PRODUCT_CATEGORY('detail','',(#665));
#672=PRODUCT_CATEGORY_RELATIONSHIP('','',#670,#671);
#673=SECURITY_CLASSIFICATION_LEVEL('unclassified');
#674=SECURITY_CLASSIFICATION('','',#673);
#675=CC_DESIGN_SECURITY_CLASSIFICATION(#674,(#666));
#676=APPROVAL_STATUS('approved');
#677=APPROVAL(#676,'');
#678=CC_DESIGN_APPROVAL(#677,(#674,#666,#667));
#679=CALENDAR_DATE(111,5,5);
#680=COORDINATED_UNIVERSAL_TIME_OFFSET(5,0,.BEHIND.);
#681=LOCAL_TIME(11,27,1.3E1,#680);
#682=DATE_AND_TIME(#679,#681);
#683=APPROVAL_DATE_TIME(#682,#677);
#684=DATE_TIME_ROLE('creation_date');
#685=CC_DESIGN_DATE_AND_TIME_ASSIGNMENT(#682,#684,(#667));
#686=DATE_TIME_ROLE('classification_date');
#687=CC_DESIGN_DATE_AND_TIME_ASSIGNMENT(#682,#686,(#674));
#688=PERSON('UNSPECIFIED','UNSPECIFIED',$,$,$,$);
#689=ORGANIZATION('UNSPECIFIED','UNSPECIFIED','UNSPECIFIED');
#690=PERSON_AND_ORGANIZATION(#688,#689);
#691=APPROVAL_ROLE('approver');
#692=APPROVAL_PERSON_ORGANIZATION(#690,#677,#691);
#693=PERSON_AND_ORGANIZATION_ROLE('creator');
#694=CC_DESIGN_PERSON_AND_ORGANIZATION_ASSIGNMENT(#690,#693,(#666,#667));
#695=PERSON_AND_ORGANIZATION_ROLE('design_supplier');
#696=CC_DESIGN_PERSON_AND_ORGANIZATION_ASSIGNMENT(#690,#695,(#666));
#697=PERSON_AND_ORGANIZATION_ROLE('classification_officer');
#698=CC_DESIGN_PERSON_AND_ORGANIZATION_ASSIGNMENT(#690,#697,(#674));
#699=PERSON_AND_ORGANIZATION_ROLE('design_owner');
#700=CC_DESIGN_PERSON_AND_ORGANIZATION_ASSIGNMENT(#690,#699,(#665));
#9=CIRCLE('',#8,2.E-1);
#18=CIRCLE('',#17,9.E-2);
#23=CIRCLE('',#22,9.E-2);
#28=CIRCLE('',#27,9.E-2);
#33=CIRCLE('',#32,8.6E-1);
#38=CIRCLE('',#37,9.E-2);
#43=CIRCLE('',#42,1.04E0);
#64=CIRCLE('',#63,6.25E-1);
#73=CIRCLE('',#72,4.375E-1);
#78=CIRCLE('',#77,4.375E-1);
#87=CIRCLE('',#86,5.E-2);
#96=CIRCLE('',#95,5.E-2);
#109=CIRCLE('',#108,2.E-1);
#122=CIRCLE('',#121,9.E-2);
#127=CIRCLE('',#126,9.E-2);
#132=CIRCLE('',#131,9.E-2);
#137=CIRCLE('',#136,1.04E0);
#142=CIRCLE('',#141,9.E-2);
#147=CIRCLE('',#146,8.6E-1);
#180=CIRCLE('',#179,1.5E-1);
#189=CIRCLE('',#188,1.5E-1);
#194=CIRCLE('',#193,6.25E-1);
#203=CIRCLE('',#202,4.375E-1);
#208=CIRCLE('',#207,4.375E-1);
#318=EDGE_CURVE('',#299,#248,#51,.T.);
#320=EDGE_CURVE('',#299,#300,#175,.T.);
#322=EDGE_CURVE('',#243,#300,#167,.T.);
#324=EDGE_CURVE('',#243,#244,#4,.T.);
#326=EDGE_CURVE('',#244,#246,#9,.T.);
#328=EDGE_CURVE('',#246,#248,#13,.T.);
#332=EDGE_CURVE('',#259,#260,#18,.T.);
#334=EDGE_CURVE('',#260,#259,#23,.T.);
#338=EDGE_CURVE('',#267,#268,#28,.T.);
#340=EDGE_CURVE('',#267,#272,#33,.T.);
#342=EDGE_CURVE('',#270,#272,#38,.T.);
#344=EDGE_CURVE('',#268,#270,#43,.T.);
#354=EDGE_CURVE('',#312,#307,#47,.T.);
#356=EDGE_CURVE('',#303,#312,#198,.T.);
#358=EDGE_CURVE('',#299,#303,#180,.T.);
#361=EDGE_CURVE('',#248,#256,#55,.T.);
#363=EDGE_CURVE('',#256,#291,#100,.T.);
#365=EDGE_CURVE('',#291,#295,#96,.T.);
#367=EDGE_CURVE('',#295,#307,#59,.T.);
#377=EDGE_CURVE('',#307,#308,#64,.T.);
#379=EDGE_CURVE('',#310,#308,#163,.T.);
#381=EDGE_CURVE('',#310,#312,#194,.T.);
#394=EDGE_CURVE('',#295,#296,#91,.T.);
#396=EDGE_CURVE('',#296,#308,#68,.T.);
#400=EDGE_CURVE('',#287,#288,#73,.T.);
#402=EDGE_CURVE('',#288,#287,#78,.T.);
#412=EDGE_CURVE('',#291,#292,#82,.T.);
#414=EDGE_CURVE('',#292,#296,#87,.T.);
#428=EDGE_CURVE('',#254,#256,#104,.T.);
#430=EDGE_CURVE('',#252,#254,#109,.T.);
#432=EDGE_CURVE('',#251,#252,#113,.T.);
#434=EDGE_CURVE('',#292,#251,#117,.T.);
#438=EDGE_CURVE('',#263,#264,#122,.T.);
#440=EDGE_CURVE('',#264,#263,#127,.T.);
#444=EDGE_CURVE('',#275,#276,#132,.T.);
#446=EDGE_CURVE('',#276,#278,#137,.T.);
#448=EDGE_CURVE('',#278,#280,#142,.T.);
#450=EDGE_CURVE('',#275,#280,#147,.T.);
#461=EDGE_CURVE('',#246,#254,#151,.T.);
#474=EDGE_CURVE('',#244,#252,#155,.T.);
#487=EDGE_CURVE('',#243,#251,#159,.T.);
#505=EDGE_CURVE('',#300,#304,#189,.T.);
#507=EDGE_CURVE('',#304,#310,#171,.T.);
#519=EDGE_CURVE('',#303,#304,#184,.T.);
#536=EDGE_CURVE('',#283,#284,#203,.T.);
#538=EDGE_CURVE('',#284,#283,#208,.T.);
#549=EDGE_CURVE('',#288,#284,#216,.T.);
#552=EDGE_CURVE('',#287,#283,#212,.T.);
#575=EDGE_CURVE('',#264,#260,#224,.T.);
#578=EDGE_CURVE('',#263,#259,#220,.T.);
#601=EDGE_CURVE('',#276,#268,#232,.T.);
#604=EDGE_CURVE('',#275,#267,#228,.T.);
#615=EDGE_CURVE('',#278,#270,#236,.T.);
#628=EDGE_CURVE('',#280,#272,#240,.T.);
#660=ADVANCED_BREP_SHAPE_REPRESENTATION('',(#648),#659);
#667=PRODUCT_DEFINITION('design','',#666,#663);
#668=PRODUCT_DEFINITION_SHAPE('','SHAPE FOR 155365_SW.',#667);
#669=SHAPE_DEFINITION_REPRESENTATION(#668,#660);
ENDSEC;
END-ISO-10303-21;
