ISO-10303-21;
HEADER;
FILE_DESCRIPTION((''),'2;1');
FILE_NAME('153766_SW','2010-07-28T',('banengservice'),('BANNER ENGINEERING'),
'PRO/ENGINEER BY PARAMETRIC TECHNOLOGY CORPORATION, 2009141',
'PRO/ENGINEER BY PARAMETRIC TECHNOLOGY CORPORATION, 2009141','');
FILE_SCHEMA(('CONFIG_CONTROL_DESIGN'));
ENDSEC;
DATA;
#1=CARTESIAN_POINT('',(0.E0,0.E0,0.E0));
#2=DIRECTION('',(0.E0,1.E0,0.E0));
#3=DIRECTION('',(1.E0,0.E0,0.E0));
#4=AXIS2_PLACEMENT_3D('',#1,#2,#3);
#6=CARTESIAN_POINT('',(0.E0,0.E0,0.E0));
#7=DIRECTION('',(0.E0,1.E0,0.E0));
#8=DIRECTION('',(-1.E0,0.E0,0.E0));
#9=AXIS2_PLACEMENT_3D('',#6,#7,#8);
#11=CARTESIAN_POINT('',(0.E0,0.E0,0.E0));
#12=DIRECTION('',(0.E0,-1.E0,0.E0));
#13=DIRECTION('',(-1.E0,0.E0,0.E0));
#14=AXIS2_PLACEMENT_3D('',#11,#12,#13);
#16=CARTESIAN_POINT('',(0.E0,0.E0,0.E0));
#17=DIRECTION('',(0.E0,-1.E0,0.E0));
#18=DIRECTION('',(1.E0,0.E0,0.E0));
#19=AXIS2_PLACEMENT_3D('',#16,#17,#18);
#21=DIRECTION('',(0.E0,1.E0,0.E0));
#22=VECTOR('',#21,1.377952755906E0);
#23=CARTESIAN_POINT('',(-7.874015748031E-2,0.E0,0.E0));
#24=LINE('',#23,#22);
#25=DIRECTION('',(0.E0,-1.E0,0.E0));
#26=VECTOR('',#25,1.377952755906E0);
#27=CARTESIAN_POINT('',(7.874015748031E-2,1.377952755906E0,0.E0));
#28=LINE('',#27,#26);
#29=CARTESIAN_POINT('',(0.E0,1.377952755906E0,0.E0));
#30=DIRECTION('',(0.E0,-1.E0,0.E0));
#31=DIRECTION('',(-1.E0,0.E0,0.E0));
#32=AXIS2_PLACEMENT_3D('',#29,#30,#31);
#34=CARTESIAN_POINT('',(0.E0,1.377952755906E0,0.E0));
#35=DIRECTION('',(0.E0,-1.E0,0.E0));
#36=DIRECTION('',(1.E0,0.E0,0.E0));
#37=AXIS2_PLACEMENT_3D('',#34,#35,#36);
#39=CARTESIAN_POINT('',(0.E0,1.377952755906E0,0.E0));
#40=DIRECTION('',(0.E0,-1.E0,0.E0));
#41=DIRECTION('',(1.E0,0.E0,0.E0));
#42=AXIS2_PLACEMENT_3D('',#39,#40,#41);
#44=CARTESIAN_POINT('',(0.E0,1.377952755906E0,0.E0));
#45=DIRECTION('',(0.E0,-1.E0,0.E0));
#46=DIRECTION('',(-1.E0,0.E0,0.E0));
#47=AXIS2_PLACEMENT_3D('',#44,#45,#46);
#49=CARTESIAN_POINT('',(-3.937007874016E-2,3.346456692913E-1,
6.819097667594E-2));
#50=CARTESIAN_POINT('',(-3.937007874016E-2,3.378373027707E-1,
6.819097667594E-2));
#51=CARTESIAN_POINT('',(-3.858415747905E-2,3.443863788119E-1,
6.865378144090E-2));
#52=CARTESIAN_POINT('',(-3.482804297255E-2,3.540084534056E-1,
7.069585171325E-2));
#53=CARTESIAN_POINT('',(-2.824990991973E-2,3.627960949544E-1,
7.365594788673E-2));
#54=CARTESIAN_POINT('',(-1.956236441971E-2,3.693565668554E-1,
7.647331564978E-2));
#55=CARTESIAN_POINT('',(-9.925322218577E-3,3.731885191679E-1,
7.832166432698E-2));
#56=CARTESIAN_POINT('',(1.790811854272E-6,3.744293803102E-1,7.894940187498E-2));
#57=CARTESIAN_POINT('',(9.921982315799E-3,3.731884477495E-1,7.832167303951E-2));
#58=CARTESIAN_POINT('',(1.955301915167E-2,3.693618077238E-1,7.647569827629E-2));
#59=CARTESIAN_POINT('',(2.824394392778E-2,3.628016413500E-1,7.365827741909E-2));
#60=CARTESIAN_POINT('',(3.482076533057E-2,3.540216775556E-1,7.069948882773E-2));
#61=CARTESIAN_POINT('',(3.858390046403E-2,3.443910632950E-1,6.865403643155E-2));
#62=CARTESIAN_POINT('',(3.937007874016E-2,3.378389773349E-1,6.819097667595E-2));
#63=CARTESIAN_POINT('',(3.937007874016E-2,3.346456692913E-1,6.819097667595E-2));
#65=CARTESIAN_POINT('',(0.E0,3.346456692913E-1,3.937007874016E-2));
#66=DIRECTION('',(0.E0,0.E0,-1.E0));
#67=DIRECTION('',(-1.E0,0.E0,0.E0));
#68=AXIS2_PLACEMENT_3D('',#65,#66,#67);
#70=CARTESIAN_POINT('',(0.E0,3.346456692913E-1,3.937007874016E-2));
#71=DIRECTION('',(0.E0,0.E0,1.E0));
#72=DIRECTION('',(-1.E0,0.E0,0.E0));
#73=AXIS2_PLACEMENT_3D('',#70,#71,#72);
#75=DIRECTION('',(-4.815182316225E-14,-2.503894804437E-14,1.E0));
#76=VECTOR('',#75,2.882089793579E-2);
#77=CARTESIAN_POINT('',(3.937007874016E-2,3.346456692913E-1,3.937007874016E-2));
#78=LINE('',#77,#76);
#79=CARTESIAN_POINT('',(3.937007874016E-2,3.346456692913E-1,6.819097667595E-2));
#80=CARTESIAN_POINT('',(3.937007874016E-2,3.314540347250E-1,6.819097667595E-2));
#81=CARTESIAN_POINT('',(3.858415691811E-2,3.249049568168E-1,6.865378175908E-2));
#82=CARTESIAN_POINT('',(3.482804076897E-2,3.152828807683E-1,7.069585290783E-2));
#83=CARTESIAN_POINT('',(2.824990538948E-2,3.064952393648E-1,7.365594953367E-2));
#84=CARTESIAN_POINT('',(1.956235932938E-2,2.999347676663E-1,7.647331749684E-2));
#85=CARTESIAN_POINT('',(9.925304883916E-3,2.961028160037E-1,7.832166602885E-2));
#86=CARTESIAN_POINT('',(-1.778007039144E-6,2.948619600074E-1,
7.894940101197E-2));
#87=CARTESIAN_POINT('',(-9.921971924516E-3,2.961028873040E-1,
7.832167479004E-2));
#88=CARTESIAN_POINT('',(-1.955301384766E-2,2.999295277808E-1,
7.647569967965E-2));
#89=CARTESIAN_POINT('',(-2.824393892652E-2,3.064896923483E-1,
7.365827935976E-2));
#90=CARTESIAN_POINT('',(-3.482076237124E-2,3.152696552665E-1,
7.069949036927E-2));
#91=CARTESIAN_POINT('',(-3.858390004014E-2,3.249002723840E-1,
6.865403669426E-2));
#92=CARTESIAN_POINT('',(-3.937007874016E-2,3.314523602280E-1,
6.819097667594E-2));
#93=CARTESIAN_POINT('',(-3.937007874016E-2,3.346456692913E-1,
6.819097667594E-2));
#95=DIRECTION('',(-2.383515246532E-14,7.704291705963E-14,-1.E0));
#96=VECTOR('',#95,2.882089793578E-2);
#97=CARTESIAN_POINT('',(-3.937007874016E-2,3.346456692913E-1,
6.819097667594E-2));
#98=LINE('',#97,#96);
#99=DIRECTION('',(0.E0,-1.E0,0.E0));
#100=VECTOR('',#99,3.937007874016E-1);
#101=CARTESIAN_POINT('',(6.889763779528E-2,0.E0,0.E0));
#102=LINE('',#101,#100);
#103=DIRECTION('',(0.E0,1.E0,0.E0));
#104=VECTOR('',#103,3.937007874016E-1);
#105=CARTESIAN_POINT('',(-6.889763779528E-2,-3.937007874016E-1,0.E0));
#106=LINE('',#105,#104);
#107=CARTESIAN_POINT('',(0.E0,-3.937007874016E-1,0.E0));
#108=DIRECTION('',(0.E0,1.E0,0.E0));
#109=DIRECTION('',(1.E0,0.E0,0.E0));
#110=AXIS2_PLACEMENT_3D('',#107,#108,#109);
#112=CARTESIAN_POINT('',(0.E0,-3.937007874016E-1,0.E0));
#113=DIRECTION('',(0.E0,1.E0,0.E0));
#114=DIRECTION('',(-1.E0,0.E0,0.E0));
#115=AXIS2_PLACEMENT_3D('',#112,#113,#114);
#117=CARTESIAN_POINT('',(7.874015748031E-2,0.E0,0.E0));
#118=CARTESIAN_POINT('',(-7.874015748031E-2,0.E0,0.E0));
#119=VERTEX_POINT('',#117);
#120=VERTEX_POINT('',#118);
#121=CARTESIAN_POINT('',(-6.889763779528E-2,0.E0,0.E0));
#122=CARTESIAN_POINT('',(6.889763779528E-2,0.E0,0.E0));
#123=VERTEX_POINT('',#121);
#124=VERTEX_POINT('',#122);
#125=CARTESIAN_POINT('',(7.874015748031E-2,1.377952755906E0,0.E0));
#126=VERTEX_POINT('',#125);
#127=CARTESIAN_POINT('',(-7.874015748031E-2,1.377952755906E0,0.E0));
#128=VERTEX_POINT('',#127);
#129=VERTEX_POINT('',#49);
#130=VERTEX_POINT('',#63);
#131=CARTESIAN_POINT('',(7.834546748871E-2,1.377952755906E0,0.E0));
#132=CARTESIAN_POINT('',(-7.834546748871E-2,1.377952755906E0,0.E0));
#133=VERTEX_POINT('',#131);
#134=VERTEX_POINT('',#132);
#135=CARTESIAN_POINT('',(-3.937007874016E-2,3.346456692913E-1,
3.937007874016E-2));
#136=CARTESIAN_POINT('',(3.937007874016E-2,3.346456692913E-1,
3.937007874016E-2));
#137=VERTEX_POINT('',#135);
#138=VERTEX_POINT('',#136);
#139=CARTESIAN_POINT('',(6.889763779528E-2,-3.937007874016E-1,0.E0));
#140=VERTEX_POINT('',#139);
#141=CARTESIAN_POINT('',(-6.889763779528E-2,-3.937007874016E-1,0.E0));
#142=VERTEX_POINT('',#141);
#143=CARTESIAN_POINT('',(0.E0,0.E0,0.E0));
#144=DIRECTION('',(0.E0,1.E0,0.E0));
#145=DIRECTION('',(1.E0,0.E0,0.E0));
#146=AXIS2_PLACEMENT_3D('',#143,#144,#145);
#147=PLANE('',#146);
#149=ORIENTED_EDGE('',*,*,#148,.T.);
#151=ORIENTED_EDGE('',*,*,#150,.T.);
#152=EDGE_LOOP('',(#149,#151));
#153=FACE_OUTER_BOUND('',#152,.F.);
#155=ORIENTED_EDGE('',*,*,#154,.T.);
#157=ORIENTED_EDGE('',*,*,#156,.T.);
#158=EDGE_LOOP('',(#155,#157));
#159=FACE_BOUND('',#158,.F.);
#160=ADVANCED_FACE('',(#153,#159),#147,.F.);
#161=CARTESIAN_POINT('',(0.E0,0.E0,0.E0));
#162=DIRECTION('',(0.E0,1.E0,0.E0));
#163=DIRECTION('',(1.E0,0.E0,0.E0));
#164=AXIS2_PLACEMENT_3D('',#161,#162,#163);
#165=CYLINDRICAL_SURFACE('',#164,7.874015748031E-2);
#166=ORIENTED_EDGE('',*,*,#148,.F.);
#168=ORIENTED_EDGE('',*,*,#167,.F.);
#170=ORIENTED_EDGE('',*,*,#169,.F.);
#172=ORIENTED_EDGE('',*,*,#171,.F.);
#173=EDGE_LOOP('',(#166,#168,#170,#172));
#174=FACE_OUTER_BOUND('',#173,.F.);
#175=ADVANCED_FACE('',(#174),#165,.T.);
#176=CARTESIAN_POINT('',(0.E0,0.E0,0.E0));
#177=DIRECTION('',(0.E0,1.E0,0.E0));
#178=DIRECTION('',(1.E0,0.E0,0.E0));
#179=AXIS2_PLACEMENT_3D('',#176,#177,#178);
#180=CYLINDRICAL_SURFACE('',#179,7.874015748031E-2);
#181=ORIENTED_EDGE('',*,*,#150,.F.);
#182=ORIENTED_EDGE('',*,*,#171,.T.);
#184=ORIENTED_EDGE('',*,*,#183,.F.);
#185=ORIENTED_EDGE('',*,*,#167,.T.);
#186=EDGE_LOOP('',(#181,#182,#184,#185));
#187=FACE_OUTER_BOUND('',#186,.F.);
#189=ORIENTED_EDGE('',*,*,#188,.F.);
#191=ORIENTED_EDGE('',*,*,#190,.F.);
#192=EDGE_LOOP('',(#189,#191));
#193=FACE_BOUND('',#192,.F.);
#194=ADVANCED_FACE('',(#187,#193),#180,.T.);
#195=CARTESIAN_POINT('',(0.E0,1.377952755906E0,0.E0));
#196=DIRECTION('',(0.E0,1.E0,0.E0));
#197=DIRECTION('',(1.E0,0.E0,0.E0));
#198=AXIS2_PLACEMENT_3D('',#195,#196,#197);
#199=PLANE('',#198);
#200=ORIENTED_EDGE('',*,*,#169,.T.);
#201=ORIENTED_EDGE('',*,*,#183,.T.);
#202=EDGE_LOOP('',(#200,#201));
#203=FACE_OUTER_BOUND('',#202,.F.);
#205=ORIENTED_EDGE('',*,*,#204,.F.);
#207=ORIENTED_EDGE('',*,*,#206,.F.);
#208=EDGE_LOOP('',(#205,#207));
#209=FACE_BOUND('',#208,.F.);
#210=ADVANCED_FACE('',(#203,#209),#199,.T.);
#211=CARTESIAN_POINT('',(0.E0,1.370078740157E0,0.E0));
#212=DIRECTION('',(1.E0,0.E0,0.E0));
#213=DIRECTION('',(0.E0,-1.E0,0.E0));
#214=AXIS2_PLACEMENT_3D('',#211,#212,#213);
#215=SPHERICAL_SURFACE('',#214,7.874015748032E-2);
#216=ORIENTED_EDGE('',*,*,#204,.T.);
#217=ORIENTED_EDGE('',*,*,#206,.T.);
#218=EDGE_LOOP('',(#216,#217));
#219=FACE_OUTER_BOUND('',#218,.F.);
#220=ADVANCED_FACE('',(#219),#215,.T.);
#221=CARTESIAN_POINT('',(0.E0,3.346456692913E-1,3.937007874016E-2));
#222=DIRECTION('',(0.E0,0.E0,1.E0));
#223=DIRECTION('',(1.E0,0.E0,0.E0));
#224=AXIS2_PLACEMENT_3D('',#221,#222,#223);
#225=CYLINDRICAL_SURFACE('',#224,3.937007874016E-2);
#227=ORIENTED_EDGE('',*,*,#226,.F.);
#229=ORIENTED_EDGE('',*,*,#228,.F.);
#230=ORIENTED_EDGE('',*,*,#188,.T.);
#232=ORIENTED_EDGE('',*,*,#231,.F.);
#233=EDGE_LOOP('',(#227,#229,#230,#232));
#234=FACE_OUTER_BOUND('',#233,.F.);
#235=ADVANCED_FACE('',(#234),#225,.F.);
#236=CARTESIAN_POINT('',(0.E0,3.346456692913E-1,3.937007874016E-2));
#237=DIRECTION('',(1.E0,0.E0,0.E0));
#238=DIRECTION('',(0.E0,-1.E0,0.E0));
#239=AXIS2_PLACEMENT_3D('',#236,#237,#238);
#240=SPHERICAL_SURFACE('',#239,3.937007874016E-2);
#241=ORIENTED_EDGE('',*,*,#226,.T.);
#243=ORIENTED_EDGE('',*,*,#242,.F.);
#244=EDGE_LOOP('',(#241,#243));
#245=FACE_OUTER_BOUND('',#244,.F.);
#246=ADVANCED_FACE('',(#245),#240,.T.);
#247=CARTESIAN_POINT('',(0.E0,3.346456692913E-1,3.937007874016E-2));
#248=DIRECTION('',(0.E0,0.E0,1.E0));
#249=DIRECTION('',(1.E0,0.E0,0.E0));
#250=AXIS2_PLACEMENT_3D('',#247,#248,#249);
#251=CYLINDRICAL_SURFACE('',#250,3.937007874016E-2);
#252=ORIENTED_EDGE('',*,*,#242,.T.);
#253=ORIENTED_EDGE('',*,*,#231,.T.);
#254=ORIENTED_EDGE('',*,*,#190,.T.);
#255=ORIENTED_EDGE('',*,*,#228,.T.);
#256=EDGE_LOOP('',(#252,#253,#254,#255));
#257=FACE_OUTER_BOUND('',#256,.F.);
#258=ADVANCED_FACE('',(#257),#251,.F.);
#259=CARTESIAN_POINT('',(0.E0,-3.937007874016E-1,0.E0));
#260=DIRECTION('',(0.E0,1.E0,0.E0));
#261=DIRECTION('',(1.E0,0.E0,0.E0));
#262=AXIS2_PLACEMENT_3D('',#259,#260,#261);
#263=CYLINDRICAL_SURFACE('',#262,6.889763779528E-2);
#264=ORIENTED_EDGE('',*,*,#154,.F.);
#266=ORIENTED_EDGE('',*,*,#265,.F.);
#268=ORIENTED_EDGE('',*,*,#267,.F.);
#270=ORIENTED_EDGE('',*,*,#269,.F.);
#271=EDGE_LOOP('',(#264,#266,#268,#270));
#272=FACE_OUTER_BOUND('',#271,.F.);
#273=ADVANCED_FACE('',(#272),#263,.T.);
#274=CARTESIAN_POINT('',(0.E0,-3.937007874016E-1,0.E0));
#275=DIRECTION('',(0.E0,1.E0,0.E0));
#276=DIRECTION('',(1.E0,0.E0,0.E0));
#277=AXIS2_PLACEMENT_3D('',#274,#275,#276);
#278=CYLINDRICAL_SURFACE('',#277,6.889763779528E-2);
#279=ORIENTED_EDGE('',*,*,#156,.F.);
#280=ORIENTED_EDGE('',*,*,#269,.T.);
#282=ORIENTED_EDGE('',*,*,#281,.F.);
#283=ORIENTED_EDGE('',*,*,#265,.T.);
#284=EDGE_LOOP('',(#279,#280,#282,#283));
#285=FACE_OUTER_BOUND('',#284,.F.);
#286=ADVANCED_FACE('',(#285),#278,.T.);
#287=CARTESIAN_POINT('',(0.E0,-3.937007874016E-1,0.E0));
#288=DIRECTION('',(0.E0,1.E0,0.E0));
#289=DIRECTION('',(1.E0,0.E0,0.E0));
#290=AXIS2_PLACEMENT_3D('',#287,#288,#289);
#291=PLANE('',#290);
#292=ORIENTED_EDGE('',*,*,#267,.T.);
#293=ORIENTED_EDGE('',*,*,#281,.T.);
#294=EDGE_LOOP('',(#292,#293));
#295=FACE_OUTER_BOUND('',#294,.F.);
#296=ADVANCED_FACE('',(#295),#291,.F.);
#297=CLOSED_SHELL('',(#160,#175,#194,#210,#220,#235,#246,#258,#273,#286,#296));
#298=MANIFOLD_SOLID_BREP('',#297);
#299=DIMENSIONAL_EXPONENTS(1.E0,0.E0,0.E0,0.E0,0.E0,0.E0,0.E0);
#300=(LENGTH_UNIT()NAMED_UNIT(*)SI_UNIT(.MILLI.,.METRE.));
#301=LENGTH_MEASURE_WITH_UNIT(LENGTH_MEASURE(2.54E1),#300);
#302=(CONVERSION_BASED_UNIT('INCH',#301)LENGTH_UNIT()NAMED_UNIT(#299));
#303=DIMENSIONAL_EXPONENTS(0.E0,0.E0,0.E0,0.E0,0.E0,0.E0,0.E0);
#304=(NAMED_UNIT(*)PLANE_ANGLE_UNIT()SI_UNIT($,.RADIAN.));
#305=PLANE_ANGLE_MEASURE_WITH_UNIT(PLANE_ANGLE_MEASURE(1.745329251994E-2),#304);
#306=(CONVERSION_BASED_UNIT('DEGREE',#305)NAMED_UNIT(#303)PLANE_ANGLE_UNIT());
#307=(NAMED_UNIT(*)SI_UNIT($,.STERADIAN.)SOLID_ANGLE_UNIT());
#308=UNCERTAINTY_MEASURE_WITH_UNIT(LENGTH_MEASURE(1.855856536197E-4),#302,
'closure',
'Maximum model space distance between geometric entities at asserted connectivities');
#309=(GEOMETRIC_REPRESENTATION_CONTEXT(3)GLOBAL_UNCERTAINTY_ASSIGNED_CONTEXT((
#308))GLOBAL_UNIT_ASSIGNED_CONTEXT((#302,#306,#307))REPRESENTATION_CONTEXT
('ID1','3'));
#311=APPLICATION_CONTEXT(
'CONFIGURATION CONTROLLED 3D DESIGNS OF MECHANICAL PARTS AND ASSEMBLIES');
#312=APPLICATION_PROTOCOL_DEFINITION('international standard',
'config_control_design',1994,#311);
#313=DESIGN_CONTEXT('',#311,'design');
#314=MECHANICAL_CONTEXT('',#311,'mechanical');
#315=PRODUCT('153766_SW','153766_SW','NOT SPECIFIED',(#314));
#316=PRODUCT_DEFINITION_FORMATION_WITH_SPECIFIED_SOURCE('','LAST_VERSION',#315,
.MADE.);
#320=PRODUCT_CATEGORY('part','');
#321=PRODUCT_RELATED_PRODUCT_CATEGORY('detail','',(#315));
#322=PRODUCT_CATEGORY_RELATIONSHIP('','',#320,#321);
#323=SECURITY_CLASSIFICATION_LEVEL('unclassified');
#324=SECURITY_CLASSIFICATION('','',#323);
#325=CC_DESIGN_SECURITY_CLASSIFICATION(#324,(#316));
#326=APPROVAL_STATUS('approved');
#327=APPROVAL(#326,'');
#328=CC_DESIGN_APPROVAL(#327,(#324,#316,#317));
#329=CALENDAR_DATE(110,28,7);
#330=COORDINATED_UNIVERSAL_TIME_OFFSET(5,0,.BEHIND.);
#331=LOCAL_TIME(12,27,1.9E1,#330);
#332=DATE_AND_TIME(#329,#331);
#333=APPROVAL_DATE_TIME(#332,#327);
#334=DATE_TIME_ROLE('creation_date');
#335=CC_DESIGN_DATE_AND_TIME_ASSIGNMENT(#332,#334,(#317));
#336=DATE_TIME_ROLE('classification_date');
#337=CC_DESIGN_DATE_AND_TIME_ASSIGNMENT(#332,#336,(#324));
#338=PERSON('UNSPECIFIED','UNSPECIFIED',$,$,$,$);
#339=ORGANIZATION('UNSPECIFIED','UNSPECIFIED','UNSPECIFIED');
#340=PERSON_AND_ORGANIZATION(#338,#339);
#341=APPROVAL_ROLE('approver');
#342=APPROVAL_PERSON_ORGANIZATION(#340,#327,#341);
#343=PERSON_AND_ORGANIZATION_ROLE('creator');
#344=CC_DESIGN_PERSON_AND_ORGANIZATION_ASSIGNMENT(#340,#343,(#316,#317));
#345=PERSON_AND_ORGANIZATION_ROLE('design_supplier');
#346=CC_DESIGN_PERSON_AND_ORGANIZATION_ASSIGNMENT(#340,#345,(#316));
#347=PERSON_AND_ORGANIZATION_ROLE('classification_officer');
#348=CC_DESIGN_PERSON_AND_ORGANIZATION_ASSIGNMENT(#340,#347,(#324));
#349=PERSON_AND_ORGANIZATION_ROLE('design_owner');
#350=CC_DESIGN_PERSON_AND_ORGANIZATION_ASSIGNMENT(#340,#349,(#315));
#5=CIRCLE('',#4,7.874015748031E-2);
#10=CIRCLE('',#9,7.874015748031E-2);
#15=CIRCLE('',#14,6.889763779528E-2);
#20=CIRCLE('',#19,6.889763779528E-2);
#33=CIRCLE('',#32,7.874015748031E-2);
#38=CIRCLE('',#37,7.874015748031E-2);
#43=CIRCLE('',#42,7.834546748871E-2);
#48=CIRCLE('',#47,7.834546748871E-2);
#64=B_SPLINE_CURVE_WITH_KNOTS('',3,(#49,#50,#51,#52,#53,#54,#55,#56,#57,#58,#59,
#60,#61,#62,#63),.UNSPECIFIED.,.F.,.F.,(4,1,1,1,1,1,1,1,1,1,1,1,4),(0.E0,
8.333333333333E-2,1.666666666667E-1,2.5E-1,3.333333333333E-1,4.166666666667E-1,
5.E-1,5.833333333333E-1,6.666666666667E-1,7.5E-1,8.333333333333E-1,
9.166666666667E-1,1.E0),.UNSPECIFIED.);
#69=CIRCLE('',#68,3.937007874016E-2);
#74=CIRCLE('',#73,3.937007874016E-2);
#94=B_SPLINE_CURVE_WITH_KNOTS('',3,(#79,#80,#81,#82,#83,#84,#85,#86,#87,#88,#89,
#90,#91,#92,#93),.UNSPECIFIED.,.F.,.F.,(4,1,1,1,1,1,1,1,1,1,1,1,4),(0.E0,
8.333333333333E-2,1.666666666667E-1,2.5E-1,3.333333333333E-1,4.166666666667E-1,
5.E-1,5.833333333333E-1,6.666666666667E-1,7.5E-1,8.333333333333E-1,
9.166666666667E-1,1.E0),.UNSPECIFIED.);
#111=CIRCLE('',#110,6.889763779528E-2);
#116=CIRCLE('',#115,6.889763779528E-2);
#148=EDGE_CURVE('',#119,#120,#5,.T.);
#150=EDGE_CURVE('',#120,#119,#10,.T.);
#154=EDGE_CURVE('',#123,#124,#15,.T.);
#156=EDGE_CURVE('',#124,#123,#20,.T.);
#167=EDGE_CURVE('',#126,#119,#28,.T.);
#169=EDGE_CURVE('',#128,#126,#33,.T.);
#171=EDGE_CURVE('',#120,#128,#24,.T.);
#183=EDGE_CURVE('',#126,#128,#38,.T.);
#188=EDGE_CURVE('',#129,#130,#64,.T.);
#190=EDGE_CURVE('',#130,#129,#94,.T.);
#204=EDGE_CURVE('',#133,#134,#43,.T.);
#206=EDGE_CURVE('',#134,#133,#48,.T.);
#226=EDGE_CURVE('',#137,#138,#69,.T.);
#228=EDGE_CURVE('',#129,#137,#98,.T.);
#231=EDGE_CURVE('',#138,#130,#78,.T.);
#242=EDGE_CURVE('',#137,#138,#74,.T.);
#265=EDGE_CURVE('',#142,#123,#106,.T.);
#267=EDGE_CURVE('',#140,#142,#111,.T.);
#269=EDGE_CURVE('',#124,#140,#102,.T.);
#281=EDGE_CURVE('',#142,#140,#116,.T.);
#310=ADVANCED_BREP_SHAPE_REPRESENTATION('',(#298),#309);
#317=PRODUCT_DEFINITION('design','',#316,#313);
#318=PRODUCT_DEFINITION_SHAPE('','SHAPE FOR 153766_SW.',#317);
#319=SHAPE_DEFINITION_REPRESENTATION(#318,#310);
ENDSEC;
END-ISO-10303-21;
