 PTC IGES file: 153633.igs                                              S      1
1H,,1H;,9H153633_SW,10H153633.igs,                                      G      1
49HPro/ENGINEER by Parametric Technology Corporation,7H2009141,32,38,7, G      2
38,15,9H153633_SW,1.,1,4HINCH,32768,0.5,15H20100728.122526,0.000185586, G      3
1.85593,13Hbanengservice,7HUnknown,10,0,15H20100728.122526;             G      4
     314       1       1       1       0       0       0       001000200D      1
     314       0       4       1       0                   COLOR       1D      2
     314       2       1       1       0       0       0       001000200D      3
     314       0       1       1       0                   COLOR       2D      4
     314       3       1       1       0       0       0       001000200D      5
     314       0       1       1       0                   COLOR       3D      6
     314       4       1       1       0       0       0       001000200D      7
     314       0       1       1       0                   COLOR       4D      8
     314       5       1       1       0       0       0       001000200D      9
     314       0       8       1       0                   COLOR       5D     10
     314       6       1       1       0       0       0       001000200D     11
     314       0       8       1       0                   COLOR       6D     12
     314       7       1       1       0       0       0       001000200D     13
     314       0       5       1       0                   COLOR       7D     14
     314       8       1       1       0       0       0       001000200D     15
     314       0       8       1       0                   COLOR       8D     16
     124       9       1       1       0       0       0       001000000D     17
     124       0       0       1       0                   XFORM       1D     18
     100      10       1       1       0       0      17       001010000D     19
     100       0       0       1       0                     ARC       1D     20
     124      11       1       1       0       0       0       001000000D     21
     124       0       0       1       0                   XFORM       2D     22
     100      12       1       1       0       0      21       001010000D     23
     100       0       0       1       0                     ARC       2D     24
     124      13       1       1       0       0       0       001000000D     25
     124       0       0       1       0                   XFORM       3D     26
     100      14       1       1       0       0      25       001010000D     27
     100       0       0       1       0                     ARC       3D     28
     124      15       1       1       0       0       0       001000000D     29
     124       0       0       1       0                   XFORM       4D     30
     100      16       1       1       0       0      29       001010000D     31
     100       0       0       1       0                     ARC       4D     32
     110      17       1       1       0       0       0       001010000D     33
     110       0       0       2       0                    LINE       1D     34
     110      19       1       1       0       0       0       001010000D     35
     110       0       0       2       0                    LINE       2D     36
     124      21       1       1       0       0       0       001000000D     37
     124       0       0       2       0                   XFORM       5D     38
     100      23       1       1       0       0      37       001010000D     39
     100       0       0       1       0                     ARC       5D     40
     124      24       1       1       0       0       0       001000000D     41
     124       0       0       2       0                   XFORM       6D     42
     100      26       1       1       0       0      41       001010000D     43
     100       0       0       1       0                     ARC       6D     44
     126      27       1       1       0       0       0       001010000D     45
     126       0       0      21       0                B_SPLINE       1D     46
     124      48       1       1       0       0       0       001000000D     47
     124       0       0       2       0                   XFORM       7D     48
     100      50       1       1       0       0      47       001010000D     49
     100       0       0       1       0                     ARC       7D     50
     124      51       1       1       0       0       0       001000000D     51
     124       0       0       2       0                   XFORM       8D     52
     100      53       1       1       0       0      51       001010000D     53
     100       0       0       1       0                     ARC       8D     54
     110      54       1       1       0       0       0       001010000D     55
     110       0       0       2       0                    LINE       3D     56
     126      56       1       1       0       0       0       001010000D     57
     126       0       0      21       0                B_SPLINE       2D     58
     110      77       1       1       0       0       0       001010000D     59
     110       0       0       2       0                    LINE       4D     60
     110      79       1       1       0       0       0       001010000D     61
     110       0       0       2       0                    LINE       5D     62
     110      81       1       1       0       0       0       001010000D     63
     110       0       0       2       0                    LINE       6D     64
     124      83       1       1       0       0       0       001000000D     65
     124       0       0       2       0                   XFORM       9D     66
     100      85       1       1       0       0      65       001010000D     67
     100       0       0       1       0                     ARC       9D     68
     124      86       1       1       0       0       0       001000000D     69
     124       0       0       2       0                   XFORM      10D     70
     100      88       1       1       0       0      69       001010000D     71
     100       0       0       1       0                     ARC      10D     72
     502      89       1       1       0       0       0       001010000D     73
     502       0       0       9       1                  VERTEX       1D     74
     504      98       1       1       0       0       0       000010001D     75
     504       0       0       4       1                    EDGE       1D     76
     128     102       1       1       0       0       0       001010000D     77
     128       0       0       8       0                  SPLSRF       1D     78
     508     110       1       1       0       0       0       001010000D     79
     508       0       0       1       1                EDGELOOP       1D     80
     508     111       1       1       0       0       0       001010000D     81
     508       0       0       1       1                EDGELOOP       2D     82
     510     112       1       1       0       0       0       000010000D     83
     510       0       0       1       1                    FACE       1D     84
     110     113       1       1       0       0       0       001010000D     85
     110       0       0       1       0                    LINE       7D     86
     110     114       1       1       0       0       0       001010000D     87
     110       0       0       2       0                    LINE       8D     88
     120     116       1       1       0       0       0       001010000D     89
     120       0       0       1       0                    SREV       1D     90
     508     117       1       1       0       0       0       001010000D     91
     508       0       0       1       1                EDGELOOP       3D     92
     510     118       1       1       0       0       0       000010000D     93
     510       0       0       1       1                    FACE       2D     94
     110     119       1       1       0       0       0       001010000D     95
     110       0       0       1       0                    LINE       9D     96
     110     120       1       1       0       0       0       001010000D     97
     110       0       0       2       0                    LINE      10D     98
     120     122       1       1       0       0       0       001010000D     99
     120       0       0       1       0                    SREV       2D    100
     508     123       1       1       0       0       0       001010000D    101
     508       0       0       1       1                EDGELOOP       4D    102
     508     124       1       1       0       0       0       001010000D    103
     508       0       0       1       1                EDGELOOP       5D    104
     510     125       1       1       0       0       0       000010000D    105
     510       0       0       1       1                    FACE       3D    106
     128     126       1       1       0       0       0       001010000D    107
     128       0       0       9       0                  SPLSRF       2D    108
     508     135       1       1       0       0       0       001010000D    109
     508       0       0       1       1                EDGELOOP       6D    110
     510     136       1       1       0       0       0       000010000D    111
     510       0       0       1       1                    FACE       4D    112
     110     137       1       1       0       0       0       001010000D    113
     110       0       0       2       0                    LINE      11D    114
     110     139       1       1       0       0       0       001010000D    115
     110       0       0       2       0                    LINE      12D    116
     120     141       1       1       0       0       0       001010000D    117
     120       0       0       1       0                    SREV       3D    118
     508     142       1       1       0       0       0       001010000D    119
     508       0       0       1       1                EDGELOOP       7D    120
     510     143       1       1       0       0       0       000010000D    121
     510       0       0       1       1                    FACE       5D    122
     110     144       1       1       0       0       0       001010000D    123
     110       0       0       2       0                    LINE      13D    124
     124     146       1       1       0       0       0       001000000D    125
     124       0       0       2       0                   XFORM      11D    126
     100     148       1       1       0       0     125       001010000D    127
     100       0       0       1       0                     ARC      11D    128
     120     149       1       1       0       0       0       001010000D    129
     120       0       0       1       0                    SREV       4D    130
     508     150       1       1       0       0       0       001010000D    131
     508       0       0       1       1                EDGELOOP       8D    132
     510     151       1       1       0       0       0       000010000D    133
     510       0       0       1       1                    FACE       6D    134
     110     152       1       1       0       0       0       001010000D    135
     110       0       0       2       0                    LINE      14D    136
     110     154       1       1       0       0       0       001010000D    137
     110       0       0       2       0                    LINE      15D    138
     120     156       1       1       0       0       0       001010000D    139
     120       0       0       1       0                    SREV       5D    140
     508     157       1       1       0       0       0       001010000D    141
     508       0       0       1       1                EDGELOOP       9D    142
     510     158       1       1       0       0       0       000010000D    143
     510       0       0       1       1                    FACE       7D    144
     110     159       1       1       0       0       0       001010000D    145
     110       0       0       1       0                    LINE      16D    146
     110     160       1       1       0       0       0       001010000D    147
     110       0       0       2       0                    LINE      17D    148
     120     162       1       1       0       0       0       001010000D    149
     120       0       0       1       0                    SREV       6D    150
     508     163       1       1       0       0       0       001010000D    151
     508       0       0       1       1                EDGELOOP      10D    152
     510     164       1       1       0       0       0       000010000D    153
     510       0       0       1       1                    FACE       8D    154
     110     165       1       1       0       0       0       001010000D    155
     110       0       0       1       0                    LINE      18D    156
     110     166       1       1       0       0       0       001010000D    157
     110       0       0       2       0                    LINE      19D    158
     120     168       1       1       0       0       0       001010000D    159
     120       0       0       1       0                    SREV       7D    160
     508     169       1       1       0       0       0       001010000D    161
     508       0       0       1       1                EDGELOOP      11D    162
     510     170       1       1       0       0       0       000010000D    163
     510       0       0       1       1                    FACE       9D    164
     128     171       1       1       0       0       0       001010000D    165
     128       0       0       9       0                  SPLSRF       3D    166
     508     180       1       1       0       0       0       001010000D    167
     508       0       0       1       1                EDGELOOP      12D    168
     510     181       1       1       0       0       0       000010000D    169
     510       0       0       1       1                    FACE      10D    170
     514     182       1       1       0       0       0       000010000D    171
     514       0       0       2       1                   SHELL       1D    172
     186     184       1       1       0       0       0       000000000D    173
     186       0       0       1       0                    MSBR       1D    174
314,1.1D0,1.2D0,1D2;                                                   1P      1
314,1.1D1,1.1D1,1.1D1;                                                 3P      2
314,3.92D1,1.2D0,1.2D0;                                                5P      3
314,4.1D1,0D0,2.2D1;                                                   7P      4
314,8.784D1,9.49D1,1D2;                                                9P      5
314,9.6D1,9.6D1,9.6D1;                                                11P      6
314,9.8D1,6.27D1,0D0;                                                 13P      7
314,1D2,1D2,9.49D1;                                                   15P      8
124,1D0,0D0,0D0,0D0,0D0,0D0,1D0,0D0,0D0,-1D0,0D0,0D0;                 17P      9
100,0D0,0D0,0D0,7.874015748031D-2,0D0,-7.874015748031D-2,0D0;         19P     10
124,-1D0,0D0,0D0,0D0,0D0,0D0,1D0,0D0,0D0,1D0,0D0,0D0;                 21P     11
100,0D0,0D0,0D0,7.874015748031D-2,0D0,-7.874015748031D-2,0D0;         23P     12
124,-1D0,0D0,0D0,0D0,0D0,0D0,-1D0,0D0,0D0,-1D0,0D0,0D0;               25P     13
100,0D0,0D0,0D0,6.889763779528D-2,0D0,-6.889763779528D-2,0D0;         27P     14
124,1D0,0D0,0D0,0D0,0D0,0D0,-1D0,0D0,0D0,1D0,0D0,0D0;                 29P     15
100,0D0,0D0,0D0,6.889763779528D-2,0D0,-6.889763779528D-2,0D0;         31P     16
110,-7.874015748031D-2,0D0,0D0,-7.874015748031D-2,                    33P     17
1.377952755906D0,0D0;                                                 33P     18
110,7.874015748031D-2,1.377952755906D0,0D0,7.874015748031D-2,         35P     19
0D0,0D0;                                                              35P     20
124,-1D0,0D0,0D0,0D0,0D0,0D0,-1D0,1.377952755906D0,0D0,-1D0,0D0,      37P     21
0D0;                                                                  37P     22
100,0D0,0D0,0D0,7.874015748031D-2,0D0,-7.874015748031D-2,0D0;         39P     23
124,1D0,0D0,0D0,0D0,0D0,0D0,-1D0,1.377952755906D0,0D0,1D0,0D0,        41P     24
0D0;                                                                  41P     25
100,0D0,0D0,0D0,7.874015748031D-2,0D0,-7.874015748031D-2,0D0;         43P     26
126,14,3,0,0,1,0,0D0,0D0,0D0,0D0,8.333333333333D-2,                   45P     27
1.666666666667D-1,2.5D-1,3.333333333333D-1,4.166666666667D-1,         45P     28
5D-1,5.833333333333D-1,6.666666666667D-1,7.5D-1,                      45P     29
8.333333333333D-1,9.166666666667D-1,1D0,1D0,1D0,1D0,1D0,1D0,1D0,      45P     30
1D0,1D0,1D0,1D0,1D0,1D0,1D0,1D0,1D0,1D0,1D0,1D0,                      45P     31
-3.937007874016D-2,3.346456692913D-1,6.819097667594D-2,               45P     32
-3.937007874016D-2,3.378373027707D-1,6.819097667594D-2,               45P     33
-3.858415747905D-2,3.443863788119D-1,6.865378144090D-2,               45P     34
-3.482804297255D-2,3.540084534056D-1,7.069585171325D-2,               45P     35
-2.824990991973D-2,3.627960949544D-1,7.365594788673D-2,               45P     36
-1.956236441971D-2,3.693565668554D-1,7.647331564978D-2,               45P     37
-9.925322218577D-3,3.731885191679D-1,7.832166432698D-2,               45P     38
1.790811854272D-6,3.744293803102D-1,7.894940187498D-2,                45P     39
9.921982315799D-3,3.731884477495D-1,7.832167303951D-2,                45P     40
1.955301915167D-2,3.693618077238D-1,7.647569827629D-2,                45P     41
2.824394392778D-2,3.628016413500D-1,7.365827741909D-2,                45P     42
3.482076533057D-2,3.540216775556D-1,7.069948882773D-2,                45P     43
3.858390046403D-2,3.443910632950D-1,6.865403643155D-2,                45P     44
3.937007874016D-2,3.378389773349D-1,6.819097667595D-2,                45P     45
3.937007874016D-2,3.346456692913D-1,6.819097667595D-2,0D0,1D0,        45P     46
0D0,0D0,1D0;                                                          45P     47
124,-1D0,0D0,0D0,0D0,0D0,1D0,0D0,3.346456692913D-1,0D0,0D0,-1D0,      47P     48
3.937007874016D-2;                                                    47P     49
100,0D0,0D0,0D0,3.937007874016D-2,0D0,-3.937007874016D-2,0D0;         49P     50
124,-1D0,0D0,0D0,0D0,0D0,-1D0,0D0,3.346456692913D-1,0D0,0D0,1D0,      51P     51
3.937007874016D-2;                                                    51P     52
100,0D0,0D0,0D0,3.937007874016D-2,0D0,-3.937007874016D-2,0D0;         53P     53
110,3.937007874016D-2,3.346456692913D-1,3.937007874016D-2,            55P     54
3.937007874016D-2,3.346456692913D-1,6.819097667595D-2;                55P     55
126,14,3,0,0,1,0,0D0,0D0,0D0,0D0,8.333333333333D-2,                   57P     56
1.666666666667D-1,2.5D-1,3.333333333333D-1,4.166666666667D-1,         57P     57
5D-1,5.833333333333D-1,6.666666666667D-1,7.5D-1,                      57P     58
8.333333333333D-1,9.166666666667D-1,1D0,1D0,1D0,1D0,1D0,1D0,1D0,      57P     59
1D0,1D0,1D0,1D0,1D0,1D0,1D0,1D0,1D0,1D0,1D0,1D0,                      57P     60
3.937007874016D-2,3.346456692913D-1,6.819097667595D-2,                57P     61
3.937007874016D-2,3.314540347250D-1,6.819097667595D-2,                57P     62
3.858415691811D-2,3.249049568168D-1,6.865378175908D-2,                57P     63
3.482804076897D-2,3.152828807683D-1,7.069585290782D-2,                57P     64
2.824990538948D-2,3.064952393648D-1,7.365594953367D-2,                57P     65
1.956235932938D-2,2.999347676663D-1,7.647331749684D-2,                57P     66
9.925304883916D-3,2.961028160037D-1,7.832166602885D-2,                57P     67
-1.778007039144D-6,2.948619600074D-1,7.894940101197D-2,               57P     68
-9.921971924516D-3,2.961028873040D-1,7.832167479004D-2,               57P     69
-1.955301384766D-2,2.999295277808D-1,7.647569967965D-2,               57P     70
-2.824393892652D-2,3.064896923483D-1,7.365827935976D-2,               57P     71
-3.482076237124D-2,3.152696552665D-1,7.069949036927D-2,               57P     72
-3.858390004014D-2,3.249002723840D-1,6.865403669426D-2,               57P     73
-3.937007874016D-2,3.314523602280D-1,6.819097667594D-2,               57P     74
-3.937007874016D-2,3.346456692913D-1,6.819097667594D-2,0D0,1D0,       57P     75
0D0,0D0,1D0;                                                          57P     76
110,-3.937007874016D-2,3.346456692913D-1,6.819097667594D-2,           59P     77
-3.937007874016D-2,3.346456692913D-1,3.937007874016D-2;               59P     78
110,6.889763779528D-2,0D0,0D0,6.889763779528D-2,                      61P     79
-3.937007874016D-1,0D0;                                               61P     80
110,-6.889763779528D-2,-3.937007874016D-1,0D0,                        63P     81
-6.889763779528D-2,0D0,0D0;                                           63P     82
124,1D0,0D0,0D0,0D0,0D0,0D0,1D0,-3.937007874016D-1,0D0,-1D0,0D0,      65P     83
0D0;                                                                  65P     84
100,0D0,0D0,0D0,6.889763779528D-2,0D0,-6.889763779528D-2,0D0;         67P     85
124,-1D0,0D0,0D0,0D0,0D0,0D0,1D0,-3.937007874016D-1,0D0,1D0,0D0,      69P     86
0D0;                                                                  69P     87
100,0D0,0D0,0D0,6.889763779528D-2,0D0,-6.889763779528D-2,0D0;         71P     88
502,12,7.874015748031D-2,0D0,0D0,-7.874015748031D-2,0D0,0D0,          73P     89
-6.889763779528D-2,0D0,0D0,6.889763779528D-2,0D0,0D0,                 73P     90
7.874015748031D-2,1.377952755906D0,0D0,-7.874015748031D-2,            73P     91
1.377952755906D0,0D0,-3.937007874016D-2,3.346456692913D-1,            73P     92
6.819097667594D-2,3.937007874016D-2,3.346456692913D-1,                73P     93
6.819097667595D-2,-3.937007874016D-2,3.346456692913D-1,               73P     94
3.937007874016D-2,3.937007874016D-2,3.346456692913D-1,                73P     95
3.937007874016D-2,6.889763779528D-2,-3.937007874016D-1,0D0,           73P     96
-6.889763779528D-2,-3.937007874016D-1,0D0;                            73P     97
504,18,19,73,1,73,2,23,73,2,73,1,27,73,3,73,4,31,73,4,73,3,35,        75P     98
73,5,73,1,33,73,2,73,6,45,73,7,73,8,57,73,8,73,7,39,73,6,73,5,        75P     99
43,73,5,73,6,49,73,9,73,10,55,73,10,73,8,53,73,9,73,10,59,73,7,       75P    100
73,9,61,73,4,73,11,63,73,12,73,3,67,73,11,73,12,71,73,12,73,11;       75P    101
128,1,1,1,1,0,0,1,0,0,-8.188976377953D-2,-8.188976377953D-2,          77P    102
8.188976377953D-2,8.188976377953D-2,-8.188976378242D-2,               77P    103
-8.188976378242D-2,8.188976378242D-2,8.188976378242D-2,1D0,1D0,       77P    104
1D0,1D0,-8.188976377953D-2,0D0,8.188976378242D-2,                     77P    105
8.188976377953D-2,0D0,8.188976378242D-2,-8.188976377953D-2,0D0,       77P    106
-8.188976378242D-2,8.188976377953D-2,0D0,-8.188976378242D-2,          77P    107
-8.188976377953D-2,8.188976377953D-2,-8.188976378242D-2,              77P    108
8.188976378242D-2;                                                    77P    109
508,2,0,75,1,1,0,0,75,2,1,0;                                          79P    110
508,2,0,75,3,1,0,0,75,4,1,0;                                          81P    111
510,77,2,0,79,81;                                                     83P    112
110,0D0,0D0,0D0,0D0,1D0,0D0;                                          85P    113
110,7.874015748031D-2,-2.755905511811D-2,0D0,7.874015748031D-2,       87P    114
1.405511811024D0,0D0;                                                 87P    115
120,85,87,-6.283185307180D-2,3.204424506662D0;                        89P    116
508,4,0,75,1,0,0,0,75,5,0,0,0,75,9,0,0,0,75,6,0,0;                    91P    117
510,89,1,0,91;                                                        93P    118
110,0D0,0D0,0D0,0D0,1D0,0D0;                                          95P    119
110,7.874015748031D-2,-2.755905511811D-2,0D0,7.874015748031D-2,       97P    120
1.405511811024D0,0D0;                                                 97P    121
120,95,97,3.078760800518D0,6.346017160251D0;                          99P    122
508,4,0,75,2,0,0,0,75,6,1,0,0,75,10,0,0,0,75,5,1,0;                  101P    123
508,2,0,75,7,0,0,0,75,8,0,0;                                         103P    124
510,99,2,0,101,103;                                                  105P    125
128,1,1,1,1,0,0,1,0,0,-8.188976377953D-2,-8.188976377953D-2,         107P    126
8.188976377953D-2,8.188976377953D-2,-8.188976378242D-2,              107P    127
-8.188976378242D-2,8.188976378242D-2,8.188976378242D-2,1D0,1D0,      107P    128
1D0,1D0,-8.188976377953D-2,1.377952755906D0,8.188976378242D-2,       107P    129
8.188976377953D-2,1.377952755906D0,8.188976378242D-2,                107P    130
-8.188976377953D-2,1.377952755906D0,-8.188976378242D-2,              107P    131
8.188976377953D-2,1.377952755906D0,-8.188976378242D-2,               107P    132
-8.188976377953D-2,8.188976377953D-2,-8.188976378242D-2,             107P    133
8.188976378242D-2;                                                   107P    134
508,2,0,75,9,1,0,0,75,10,1,0;                                        109P    135
510,107,1,0,109;                                                     111P    136
110,0D0,3.346456692913D-1,3.937007874016D-2,0D0,                     113P    137
3.346456692913D-1,1.039370078740D0;                                  113P    138
110,3.937007874016D-2,3.346456692913D-1,3.714296181204D-2,           115P    139
3.937007874016D-2,3.346456692913D-1,8.096727442609D-2;               115P    140
120,113,115,-6.283185307180D-2,3.204424506662D0;                     117P    141
508,4,0,75,11,0,0,0,75,14,0,0,0,75,7,1,0,0,75,12,0,0;                119P    142
510,117,1,0,119;                                                     121P    143
110,0D0,3.346456692913D-1,3.937007874016D-2,1D0,                     123P    144
3.346456692913D-1,3.937007874016D-2;                                 123P    145
124,-1D0,0D0,0D0,0D0,0D0,-1D0,0D0,3.346456692913D-1,0D0,0D0,1D0,     125P    146
3.937007874016D-2;                                                   125P    147
100,0D0,0D0,0D0,3.937007874016D-2,0D0,-3.937007874016D-2,0D0;        127P    148
120,123,127,3.078760800518D0,6.346017160251D0;                       129P    149
508,2,0,75,11,1,0,0,75,13,0,0;                                       131P    150
510,129,1,0,131;                                                     133P    151
110,0D0,3.346456692913D-1,3.937007874016D-2,0D0,                     135P    152
3.346456692913D-1,1.039370078740D0;                                  135P    153
110,3.937007874016D-2,3.346456692913D-1,3.714296181204D-2,           137P    154
3.937007874016D-2,3.346456692913D-1,8.096727442614D-2;               137P    155
120,135,137,3.078760800518D0,6.346017160251D0;                       139P    156
508,4,0,75,13,1,0,0,75,12,1,0,0,75,8,1,0,0,75,14,1,0;                141P    157
510,139,1,0,141;                                                     143P    158
110,0D0,-3.937007874016D-1,0D0,0D0,6.062992125984D-1,0D0;            145P    159
110,6.889763779528D-2,-4.015748031496D-1,0D0,6.889763779528D-2,      147P    160
7.874015748031D-3,0D0;                                               147P    161
120,145,147,-6.283185307180D-2,3.204424506662D0;                     149P    162
508,4,0,75,3,0,0,0,75,16,0,0,0,75,17,0,0,0,75,15,0,0;                151P    163
510,149,1,0,151;                                                     153P    164
110,0D0,-3.937007874016D-1,0D0,0D0,6.062992125984D-1,0D0;            155P    165
110,6.889763779528D-2,-4.015748031496D-1,0D0,6.889763779528D-2,      157P    166
7.874015748031D-3,0D0;                                               157P    167
120,155,157,3.078760800518D0,6.346017160251D0;                       159P    168
508,4,0,75,4,0,0,0,75,15,1,0,0,75,18,0,0,0,75,16,1,0;                161P    169
510,159,1,0,161;                                                     163P    170
128,1,1,1,1,0,0,1,0,0,-7.165354330709D-2,-7.165354330709D-2,         165P    171
7.165354330709D-2,7.165354330709D-2,-7.180285649646D-2,              165P    172
-7.180285649646D-2,7.180285649646D-2,7.180285649646D-2,1D0,1D0,      165P    173
1D0,1D0,-7.165354330709D-2,-3.937007874016D-1,7.180285649646D-2,     165P    174
7.165354330709D-2,-3.937007874016D-1,7.180285649646D-2,              165P    175
-7.165354330709D-2,-3.937007874016D-1,-7.180285649646D-2,            165P    176
7.165354330709D-2,-3.937007874016D-1,-7.180285649646D-2,             165P    177
-7.165354330709D-2,7.165354330709D-2,-7.180285649646D-2,             165P    178
7.180285649646D-2;                                                   165P    179
508,2,0,75,17,1,0,0,75,18,1,0;                                       167P    180
510,165,1,0,167;                                                     169P    181
514,10,83,0,93,1,105,1,111,1,121,0,133,1,143,0,153,1,163,1,169,      171P    182
0;                                                                   171P    183
186,171,1,0;                                                         173P    184
S      1G      4D    174P    184                                        T      1
