ISO-10303-21;
HEADER;
FILE_DESCRIPTION((''),'2;1');
FILE_NAME('141801_SW','2008-08-15T',('banengservice'),('BANNER ENGINEERING'),
'PRO/ENGINEER BY PARAMETRIC TECHNOLOGY CORPORATION, 2006170',
'PRO/ENGINEER BY PARAMETRIC TECHNOLOGY CORPORATION, 2006170','');
FILE_SCHEMA(('CONFIG_CONTROL_DESIGN'));
ENDSEC;
DATA;
#1=DIRECTION('',(0.E0,-1.E0,0.E0));
#2=VECTOR('',#1,3.57E-1);
#3=CARTESIAN_POINT('',(1.75E-1,4.25E-1,0.E0));
#4=LINE('',#3,#2);
#5=CARTESIAN_POINT('',(1.75E-1,6.8E-2,6.8E-2));
#6=DIRECTION('',(-1.E0,0.E0,0.E0));
#7=DIRECTION('',(0.E0,0.E0,-1.E0));
#8=AXIS2_PLACEMENT_3D('',#5,#6,#7);
#10=DIRECTION('',(0.E0,0.E0,1.E0));
#11=VECTOR('',#10,7.57E-1);
#12=CARTESIAN_POINT('',(1.75E-1,0.E0,6.8E-2));
#13=LINE('',#12,#11);
#14=DIRECTION('',(0.E0,0.E0,-1.E0));
#15=VECTOR('',#14,7.57E-1);
#16=CARTESIAN_POINT('',(1.75E-1,4.8E-2,8.25E-1));
#17=LINE('',#16,#15);
#18=CARTESIAN_POINT('',(1.75E-1,6.8E-2,6.8E-2));
#19=DIRECTION('',(1.E0,0.E0,0.E0));
#20=DIRECTION('',(0.E0,-1.E0,0.E0));
#21=AXIS2_PLACEMENT_3D('',#18,#19,#20);
#23=DIRECTION('',(0.E0,1.E0,0.E0));
#24=VECTOR('',#23,3.57E-1);
#25=CARTESIAN_POINT('',(1.75E-1,6.8E-2,4.8E-2));
#26=LINE('',#25,#24);
#27=DIRECTION('',(0.E0,0.E0,1.E0));
#28=VECTOR('',#27,4.8E-2);
#29=CARTESIAN_POINT('',(-1.75E-1,4.25E-1,0.E0));
#30=LINE('',#29,#28);
#31=CARTESIAN_POINT('',(0.E0,4.25E-1,0.E0));
#32=DIRECTION('',(0.E0,0.E0,-1.E0));
#33=DIRECTION('',(-1.E0,0.E0,0.E0));
#34=AXIS2_PLACEMENT_3D('',#31,#32,#33);
#36=DIRECTION('',(0.E0,0.E0,1.E0));
#37=VECTOR('',#36,4.8E-2);
#38=CARTESIAN_POINT('',(1.75E-1,4.25E-1,0.E0));
#39=LINE('',#38,#37);
#40=CARTESIAN_POINT('',(0.E0,4.25E-1,4.8E-2));
#41=DIRECTION('',(0.E0,0.E0,1.E0));
#42=DIRECTION('',(1.E0,0.E0,0.E0));
#43=AXIS2_PLACEMENT_3D('',#40,#41,#42);
#45=DIRECTION('',(0.E0,1.E0,0.E0));
#46=VECTOR('',#45,3.57E-1);
#47=CARTESIAN_POINT('',(-1.75E-1,6.8E-2,4.8E-2));
#48=LINE('',#47,#46);
#49=CARTESIAN_POINT('',(-1.75E-1,6.8E-2,6.8E-2));
#50=DIRECTION('',(1.E0,0.E0,0.E0));
#51=DIRECTION('',(0.E0,-1.E0,0.E0));
#52=AXIS2_PLACEMENT_3D('',#49,#50,#51);
#54=DIRECTION('',(0.E0,0.E0,-1.E0));
#55=VECTOR('',#54,7.57E-1);
#56=CARTESIAN_POINT('',(-1.75E-1,4.8E-2,8.25E-1));
#57=LINE('',#56,#55);
#58=DIRECTION('',(0.E0,0.E0,1.E0));
#59=VECTOR('',#58,7.57E-1);
#60=CARTESIAN_POINT('',(-1.75E-1,0.E0,6.8E-2));
#61=LINE('',#60,#59);
#62=CARTESIAN_POINT('',(-1.75E-1,6.8E-2,6.8E-2));
#63=DIRECTION('',(-1.E0,0.E0,0.E0));
#64=DIRECTION('',(0.E0,0.E0,-1.E0));
#65=AXIS2_PLACEMENT_3D('',#62,#63,#64);
#67=DIRECTION('',(0.E0,-1.E0,0.E0));
#68=VECTOR('',#67,3.57E-1);
#69=CARTESIAN_POINT('',(-1.75E-1,4.25E-1,0.E0));
#70=LINE('',#69,#68);
#71=DIRECTION('',(-1.E0,0.E0,0.E0));
#72=VECTOR('',#71,3.5E-1);
#73=CARTESIAN_POINT('',(1.75E-1,6.8E-2,4.8E-2));
#74=LINE('',#73,#72);
#75=CARTESIAN_POINT('',(0.E0,4.E-1,4.8E-2));
#76=DIRECTION('',(0.E0,0.E0,1.E0));
#77=DIRECTION('',(1.E0,0.E0,0.E0));
#78=AXIS2_PLACEMENT_3D('',#75,#76,#77);
#80=CARTESIAN_POINT('',(0.E0,4.E-1,4.8E-2));
#81=DIRECTION('',(0.E0,0.E0,1.E0));
#82=DIRECTION('',(-1.E0,0.E0,0.E0));
#83=AXIS2_PLACEMENT_3D('',#80,#81,#82);
#85=DIRECTION('',(-1.E0,0.E0,0.E0));
#86=VECTOR('',#85,3.5E-1);
#87=CARTESIAN_POINT('',(1.75E-1,4.8E-2,6.8E-2));
#88=LINE('',#87,#86);
#89=CARTESIAN_POINT('',(0.E0,4.8E-2,8.32E-1));
#90=DIRECTION('',(0.E0,1.E0,0.E0));
#91=DIRECTION('',(-1.E0,0.E0,0.E0));
#92=AXIS2_PLACEMENT_3D('',#89,#90,#91);
#94=DIRECTION('',(0.E0,0.E0,-1.E0));
#95=VECTOR('',#94,6.E-2);
#96=CARTESIAN_POINT('',(6.5E-2,4.8E-2,8.32E-1));
#97=LINE('',#96,#95);
#98=CARTESIAN_POINT('',(0.E0,4.8E-2,7.72E-1));
#99=DIRECTION('',(0.E0,1.E0,0.E0));
#100=DIRECTION('',(1.E0,0.E0,0.E0));
#101=AXIS2_PLACEMENT_3D('',#98,#99,#100);
#103=DIRECTION('',(0.E0,0.E0,1.E0));
#104=VECTOR('',#103,6.E-2);
#105=CARTESIAN_POINT('',(-6.5E-2,4.8E-2,7.72E-1));
#106=LINE('',#105,#104);
#107=CARTESIAN_POINT('',(0.E0,4.8E-2,3.6E-1));
#108=DIRECTION('',(0.E0,1.E0,0.E0));
#109=DIRECTION('',(-1.E0,0.E0,0.E0));
#110=AXIS2_PLACEMENT_3D('',#107,#108,#109);
#112=DIRECTION('',(0.E0,0.E0,-1.E0));
#113=VECTOR('',#112,6.E-2);
#114=CARTESIAN_POINT('',(6.5E-2,4.8E-2,3.6E-1));
#115=LINE('',#114,#113);
#116=CARTESIAN_POINT('',(0.E0,4.8E-2,3.E-1));
#117=DIRECTION('',(0.E0,1.E0,0.E0));
#118=DIRECTION('',(1.E0,0.E0,0.E0));
#119=AXIS2_PLACEMENT_3D('',#116,#117,#118);
#121=DIRECTION('',(0.E0,0.E0,1.E0));
#122=VECTOR('',#121,6.E-2);
#123=CARTESIAN_POINT('',(-6.5E-2,4.8E-2,3.E-1));
#124=LINE('',#123,#122);
#125=DIRECTION('',(0.E0,-1.E0,0.E0));
#126=VECTOR('',#125,4.8E-2);
#127=CARTESIAN_POINT('',(-1.75E-1,4.8E-2,8.25E-1));
#128=LINE('',#127,#126);
#129=CARTESIAN_POINT('',(0.E0,4.8E-2,8.25E-1));
#130=DIRECTION('',(0.E0,1.E0,0.E0));
#131=DIRECTION('',(-1.E0,0.E0,0.E0));
#132=AXIS2_PLACEMENT_3D('',#129,#130,#131);
#134=DIRECTION('',(0.E0,-1.E0,0.E0));
#135=VECTOR('',#134,4.8E-2);
#136=CARTESIAN_POINT('',(1.75E-1,4.8E-2,8.25E-1));
#137=LINE('',#136,#135);
#138=CARTESIAN_POINT('',(0.E0,0.E0,8.25E-1));
#139=DIRECTION('',(0.E0,-1.E0,0.E0));
#140=DIRECTION('',(1.E0,0.E0,0.E0));
#141=AXIS2_PLACEMENT_3D('',#138,#139,#140);
#143=DIRECTION('',(-1.E0,0.E0,0.E0));
#144=VECTOR('',#143,3.5E-1);
#145=CARTESIAN_POINT('',(1.75E-1,0.E0,6.8E-2));
#146=LINE('',#145,#144);
#147=CARTESIAN_POINT('',(0.E0,0.E0,8.32E-1));
#148=DIRECTION('',(0.E0,1.E0,0.E0));
#149=DIRECTION('',(-1.E0,0.E0,0.E0));
#150=AXIS2_PLACEMENT_3D('',#147,#148,#149);
#152=DIRECTION('',(0.E0,0.E0,1.E0));
#153=VECTOR('',#152,6.E-2);
#154=CARTESIAN_POINT('',(-6.5E-2,0.E0,7.72E-1));
#155=LINE('',#154,#153);
#156=CARTESIAN_POINT('',(0.E0,0.E0,7.72E-1));
#157=DIRECTION('',(0.E0,1.E0,0.E0));
#158=DIRECTION('',(1.E0,0.E0,0.E0));
#159=AXIS2_PLACEMENT_3D('',#156,#157,#158);
#161=DIRECTION('',(0.E0,0.E0,-1.E0));
#162=VECTOR('',#161,6.E-2);
#163=CARTESIAN_POINT('',(6.5E-2,0.E0,8.32E-1));
#164=LINE('',#163,#162);
#165=CARTESIAN_POINT('',(0.E0,0.E0,3.6E-1));
#166=DIRECTION('',(0.E0,1.E0,0.E0));
#167=DIRECTION('',(-1.E0,0.E0,0.E0));
#168=AXIS2_PLACEMENT_3D('',#165,#166,#167);
#170=DIRECTION('',(0.E0,0.E0,1.E0));
#171=VECTOR('',#170,6.E-2);
#172=CARTESIAN_POINT('',(-6.5E-2,0.E0,3.E-1));
#173=LINE('',#172,#171);
#174=CARTESIAN_POINT('',(0.E0,0.E0,3.E-1));
#175=DIRECTION('',(0.E0,1.E0,0.E0));
#176=DIRECTION('',(1.E0,0.E0,0.E0));
#177=AXIS2_PLACEMENT_3D('',#174,#175,#176);
#179=DIRECTION('',(0.E0,0.E0,-1.E0));
#180=VECTOR('',#179,6.E-2);
#181=CARTESIAN_POINT('',(6.5E-2,0.E0,3.6E-1));
#182=LINE('',#181,#180);
#183=DIRECTION('',(-1.E0,0.E0,0.E0));
#184=VECTOR('',#183,3.5E-1);
#185=CARTESIAN_POINT('',(1.75E-1,6.8E-2,0.E0));
#186=LINE('',#185,#184);
#187=CARTESIAN_POINT('',(0.E0,4.E-1,0.E0));
#188=DIRECTION('',(0.E0,0.E0,1.E0));
#189=DIRECTION('',(1.E0,0.E0,0.E0));
#190=AXIS2_PLACEMENT_3D('',#187,#188,#189);
#192=CARTESIAN_POINT('',(0.E0,4.E-1,0.E0));
#193=DIRECTION('',(0.E0,0.E0,1.E0));
#194=DIRECTION('',(-1.E0,0.E0,0.E0));
#195=AXIS2_PLACEMENT_3D('',#192,#193,#194);
#197=DIRECTION('',(0.E0,0.E0,-1.E0));
#198=VECTOR('',#197,4.8E-2);
#199=CARTESIAN_POINT('',(8.25E-2,4.E-1,4.8E-2));
#200=LINE('',#199,#198);
#201=DIRECTION('',(0.E0,0.E0,-1.E0));
#202=VECTOR('',#201,4.8E-2);
#203=CARTESIAN_POINT('',(-8.25E-2,4.E-1,4.8E-2));
#204=LINE('',#203,#202);
#205=DIRECTION('',(0.E0,-1.E0,0.E0));
#206=VECTOR('',#205,4.8E-2);
#207=CARTESIAN_POINT('',(-6.5E-2,4.8E-2,8.32E-1));
#208=LINE('',#207,#206);
#209=DIRECTION('',(0.E0,-1.E0,0.E0));
#210=VECTOR('',#209,4.8E-2);
#211=CARTESIAN_POINT('',(6.5E-2,4.8E-2,8.32E-1));
#212=LINE('',#211,#210);
#213=DIRECTION('',(0.E0,-1.E0,0.E0));
#214=VECTOR('',#213,4.8E-2);
#215=CARTESIAN_POINT('',(6.5E-2,4.8E-2,7.72E-1));
#216=LINE('',#215,#214);
#217=DIRECTION('',(0.E0,-1.E0,0.E0));
#218=VECTOR('',#217,4.8E-2);
#219=CARTESIAN_POINT('',(-6.5E-2,4.8E-2,7.72E-1));
#220=LINE('',#219,#218);
#221=DIRECTION('',(0.E0,-1.E0,0.E0));
#222=VECTOR('',#221,4.8E-2);
#223=CARTESIAN_POINT('',(-6.5E-2,4.8E-2,3.6E-1));
#224=LINE('',#223,#222);
#225=DIRECTION('',(0.E0,-1.E0,0.E0));
#226=VECTOR('',#225,4.8E-2);
#227=CARTESIAN_POINT('',(6.5E-2,4.8E-2,3.6E-1));
#228=LINE('',#227,#226);
#229=DIRECTION('',(0.E0,-1.E0,0.E0));
#230=VECTOR('',#229,4.8E-2);
#231=CARTESIAN_POINT('',(6.5E-2,4.8E-2,3.E-1));
#232=LINE('',#231,#230);
#233=DIRECTION('',(0.E0,-1.E0,0.E0));
#234=VECTOR('',#233,4.8E-2);
#235=CARTESIAN_POINT('',(-6.5E-2,4.8E-2,3.E-1));
#236=LINE('',#235,#234);
#237=CARTESIAN_POINT('',(1.75E-1,4.8E-2,6.8E-2));
#238=CARTESIAN_POINT('',(1.75E-1,6.8E-2,4.8E-2));
#239=VERTEX_POINT('',#237);
#240=VERTEX_POINT('',#238);
#241=CARTESIAN_POINT('',(1.75E-1,6.8E-2,0.E0));
#242=CARTESIAN_POINT('',(1.75E-1,0.E0,6.8E-2));
#243=VERTEX_POINT('',#241);
#244=VERTEX_POINT('',#242);
#245=CARTESIAN_POINT('',(-1.75E-1,4.8E-2,6.8E-2));
#246=CARTESIAN_POINT('',(-1.75E-1,6.8E-2,4.8E-2));
#247=VERTEX_POINT('',#245);
#248=VERTEX_POINT('',#246);
#249=CARTESIAN_POINT('',(-1.75E-1,6.8E-2,0.E0));
#250=CARTESIAN_POINT('',(-1.75E-1,0.E0,6.8E-2));
#251=VERTEX_POINT('',#249);
#252=VERTEX_POINT('',#250);
#253=CARTESIAN_POINT('',(-6.5E-2,0.E0,8.32E-1));
#254=CARTESIAN_POINT('',(6.5E-2,0.E0,8.32E-1));
#255=VERTEX_POINT('',#253);
#256=VERTEX_POINT('',#254);
#257=CARTESIAN_POINT('',(6.5E-2,0.E0,7.72E-1));
#258=VERTEX_POINT('',#257);
#259=CARTESIAN_POINT('',(-6.5E-2,0.E0,7.72E-1));
#260=VERTEX_POINT('',#259);
#261=CARTESIAN_POINT('',(-6.5E-2,0.E0,3.6E-1));
#262=CARTESIAN_POINT('',(6.5E-2,0.E0,3.6E-1));
#263=VERTEX_POINT('',#261);
#264=VERTEX_POINT('',#262);
#265=CARTESIAN_POINT('',(6.5E-2,0.E0,3.E-1));
#266=VERTEX_POINT('',#265);
#267=CARTESIAN_POINT('',(-6.5E-2,0.E0,3.E-1));
#268=VERTEX_POINT('',#267);
#269=CARTESIAN_POINT('',(-6.5E-2,4.8E-2,8.32E-1));
#270=CARTESIAN_POINT('',(6.5E-2,4.8E-2,8.32E-1));
#271=VERTEX_POINT('',#269);
#272=VERTEX_POINT('',#270);
#273=CARTESIAN_POINT('',(6.5E-2,4.8E-2,7.72E-1));
#274=VERTEX_POINT('',#273);
#275=CARTESIAN_POINT('',(-6.5E-2,4.8E-2,7.72E-1));
#276=VERTEX_POINT('',#275);
#277=CARTESIAN_POINT('',(-6.5E-2,4.8E-2,3.6E-1));
#278=CARTESIAN_POINT('',(6.5E-2,4.8E-2,3.6E-1));
#279=VERTEX_POINT('',#277);
#280=VERTEX_POINT('',#278);
#281=CARTESIAN_POINT('',(6.5E-2,4.8E-2,3.E-1));
#282=VERTEX_POINT('',#281);
#283=CARTESIAN_POINT('',(-6.5E-2,4.8E-2,3.E-1));
#284=VERTEX_POINT('',#283);
#285=CARTESIAN_POINT('',(8.25E-2,4.E-1,4.8E-2));
#286=CARTESIAN_POINT('',(-8.25E-2,4.E-1,4.8E-2));
#287=VERTEX_POINT('',#285);
#288=VERTEX_POINT('',#286);
#289=CARTESIAN_POINT('',(8.25E-2,4.E-1,0.E0));
#290=CARTESIAN_POINT('',(-8.25E-2,4.E-1,0.E0));
#291=VERTEX_POINT('',#289);
#292=VERTEX_POINT('',#290);
#293=CARTESIAN_POINT('',(-1.75E-1,4.8E-2,8.25E-1));
#294=CARTESIAN_POINT('',(-1.75E-1,0.E0,8.25E-1));
#295=VERTEX_POINT('',#293);
#296=VERTEX_POINT('',#294);
#297=CARTESIAN_POINT('',(1.75E-1,4.8E-2,8.25E-1));
#298=VERTEX_POINT('',#297);
#299=CARTESIAN_POINT('',(1.75E-1,0.E0,8.25E-1));
#300=VERTEX_POINT('',#299);
#301=CARTESIAN_POINT('',(-1.75E-1,4.25E-1,0.E0));
#302=CARTESIAN_POINT('',(-1.75E-1,4.25E-1,4.8E-2));
#303=VERTEX_POINT('',#301);
#304=VERTEX_POINT('',#302);
#305=CARTESIAN_POINT('',(1.75E-1,4.25E-1,0.E0));
#306=VERTEX_POINT('',#305);
#307=CARTESIAN_POINT('',(1.75E-1,4.25E-1,4.8E-2));
#308=VERTEX_POINT('',#307);
#309=CARTESIAN_POINT('',(1.75E-1,0.E0,0.E0));
#310=DIRECTION('',(-1.E0,0.E0,0.E0));
#311=DIRECTION('',(0.E0,0.E0,1.E0));
#312=AXIS2_PLACEMENT_3D('',#309,#310,#311);
#313=PLANE('',#312);
#315=ORIENTED_EDGE('',*,*,#314,.F.);
#317=ORIENTED_EDGE('',*,*,#316,.T.);
#319=ORIENTED_EDGE('',*,*,#318,.T.);
#321=ORIENTED_EDGE('',*,*,#320,.T.);
#323=ORIENTED_EDGE('',*,*,#322,.F.);
#325=ORIENTED_EDGE('',*,*,#324,.T.);
#327=ORIENTED_EDGE('',*,*,#326,.T.);
#329=ORIENTED_EDGE('',*,*,#328,.T.);
#330=EDGE_LOOP('',(#315,#317,#319,#321,#323,#325,#327,#329));
#331=FACE_OUTER_BOUND('',#330,.F.);
#332=ADVANCED_FACE('',(#331),#313,.F.);
#333=CARTESIAN_POINT('',(0.E0,4.25E-1,-1.947933152074E-3));
#334=DIRECTION('',(0.E0,0.E0,1.E0));
#335=DIRECTION('',(-1.E0,0.E0,0.E0));
#336=AXIS2_PLACEMENT_3D('',#333,#334,#335);
#337=CYLINDRICAL_SURFACE('',#336,1.75E-1);
#339=ORIENTED_EDGE('',*,*,#338,.F.);
#341=ORIENTED_EDGE('',*,*,#340,.T.);
#342=ORIENTED_EDGE('',*,*,#314,.T.);
#344=ORIENTED_EDGE('',*,*,#343,.T.);
#345=EDGE_LOOP('',(#339,#341,#342,#344));
#346=FACE_OUTER_BOUND('',#345,.F.);
#347=ADVANCED_FACE('',(#346),#337,.T.);
#348=CARTESIAN_POINT('',(-1.75E-1,0.E0,0.E0));
#349=DIRECTION('',(-1.E0,0.E0,0.E0));
#350=DIRECTION('',(0.E0,0.E0,1.E0));
#351=AXIS2_PLACEMENT_3D('',#348,#349,#350);
#352=PLANE('',#351);
#353=ORIENTED_EDGE('',*,*,#338,.T.);
#355=ORIENTED_EDGE('',*,*,#354,.F.);
#357=ORIENTED_EDGE('',*,*,#356,.F.);
#359=ORIENTED_EDGE('',*,*,#358,.F.);
#361=ORIENTED_EDGE('',*,*,#360,.T.);
#363=ORIENTED_EDGE('',*,*,#362,.F.);
#365=ORIENTED_EDGE('',*,*,#364,.F.);
#367=ORIENTED_EDGE('',*,*,#366,.F.);
#368=EDGE_LOOP('',(#353,#355,#357,#359,#361,#363,#365,#367));
#369=FACE_OUTER_BOUND('',#368,.F.);
#370=ADVANCED_FACE('',(#369),#352,.T.);
#371=CARTESIAN_POINT('',(1.75E-1,6.8E-2,4.8E-2));
#372=DIRECTION('',(0.E0,0.E0,1.E0));
#373=DIRECTION('',(0.E0,1.E0,0.E0));
#374=AXIS2_PLACEMENT_3D('',#371,#372,#373);
#375=PLANE('',#374);
#376=ORIENTED_EDGE('',*,*,#343,.F.);
#377=ORIENTED_EDGE('',*,*,#328,.F.);
#379=ORIENTED_EDGE('',*,*,#378,.T.);
#380=ORIENTED_EDGE('',*,*,#354,.T.);
#381=EDGE_LOOP('',(#376,#377,#379,#380));
#382=FACE_OUTER_BOUND('',#381,.F.);
#384=ORIENTED_EDGE('',*,*,#383,.T.);
#386=ORIENTED_EDGE('',*,*,#385,.T.);
#387=EDGE_LOOP('',(#384,#386));
#388=FACE_BOUND('',#387,.F.);
#389=ADVANCED_FACE('',(#382,#388),#375,.T.);
#390=CARTESIAN_POINT('',(1.75E-1,6.8E-2,6.8E-2));
#391=DIRECTION('',(-1.E0,0.E0,0.E0));
#392=DIRECTION('',(0.E0,0.E0,1.E0));
#393=AXIS2_PLACEMENT_3D('',#390,#391,#392);
#394=CYLINDRICAL_SURFACE('',#393,2.E-2);
#395=ORIENTED_EDGE('',*,*,#326,.F.);
#397=ORIENTED_EDGE('',*,*,#396,.T.);
#398=ORIENTED_EDGE('',*,*,#356,.T.);
#399=ORIENTED_EDGE('',*,*,#378,.F.);
#400=EDGE_LOOP('',(#395,#397,#398,#399));
#401=FACE_OUTER_BOUND('',#400,.F.);
#402=ADVANCED_FACE('',(#401),#394,.F.);
#403=CARTESIAN_POINT('',(1.75E-1,4.8E-2,1.E0));
#404=DIRECTION('',(0.E0,1.E0,0.E0));
#405=DIRECTION('',(0.E0,0.E0,-1.E0));
#406=AXIS2_PLACEMENT_3D('',#403,#404,#405);
#407=PLANE('',#406);
#409=ORIENTED_EDGE('',*,*,#408,.F.);
#410=ORIENTED_EDGE('',*,*,#358,.T.);
#411=ORIENTED_EDGE('',*,*,#396,.F.);
#412=ORIENTED_EDGE('',*,*,#324,.F.);
#413=EDGE_LOOP('',(#409,#410,#411,#412));
#414=FACE_OUTER_BOUND('',#413,.F.);
#416=ORIENTED_EDGE('',*,*,#415,.T.);
#418=ORIENTED_EDGE('',*,*,#417,.T.);
#420=ORIENTED_EDGE('',*,*,#419,.T.);
#422=ORIENTED_EDGE('',*,*,#421,.T.);
#423=EDGE_LOOP('',(#416,#418,#420,#422));
#424=FACE_BOUND('',#423,.F.);
#426=ORIENTED_EDGE('',*,*,#425,.T.);
#428=ORIENTED_EDGE('',*,*,#427,.T.);
#430=ORIENTED_EDGE('',*,*,#429,.T.);
#432=ORIENTED_EDGE('',*,*,#431,.T.);
#433=EDGE_LOOP('',(#426,#428,#430,#432));
#434=FACE_BOUND('',#433,.F.);
#435=ADVANCED_FACE('',(#414,#424,#434),#407,.T.);
#436=CARTESIAN_POINT('',(0.E0,5.065952571592E-2,8.25E-1));
#437=DIRECTION('',(0.E0,-1.E0,0.E0));
#438=DIRECTION('',(-1.E0,0.E0,0.E0));
#439=AXIS2_PLACEMENT_3D('',#436,#437,#438);
#440=CYLINDRICAL_SURFACE('',#439,1.75E-1);
#441=ORIENTED_EDGE('',*,*,#360,.F.);
#442=ORIENTED_EDGE('',*,*,#408,.T.);
#443=ORIENTED_EDGE('',*,*,#322,.T.);
#445=ORIENTED_EDGE('',*,*,#444,.T.);
#446=EDGE_LOOP('',(#441,#442,#443,#445));
#447=FACE_OUTER_BOUND('',#446,.F.);
#448=ADVANCED_FACE('',(#447),#440,.T.);
#449=CARTESIAN_POINT('',(1.75E-1,0.E0,6.8E-2));
#450=DIRECTION('',(0.E0,-1.E0,0.E0));
#451=DIRECTION('',(0.E0,0.E0,1.E0));
#452=AXIS2_PLACEMENT_3D('',#449,#450,#451);
#453=PLANE('',#452);
#454=ORIENTED_EDGE('',*,*,#444,.F.);
#455=ORIENTED_EDGE('',*,*,#320,.F.);
#457=ORIENTED_EDGE('',*,*,#456,.T.);
#458=ORIENTED_EDGE('',*,*,#362,.T.);
#459=EDGE_LOOP('',(#454,#455,#457,#458));
#460=FACE_OUTER_BOUND('',#459,.F.);
#462=ORIENTED_EDGE('',*,*,#461,.F.);
#464=ORIENTED_EDGE('',*,*,#463,.F.);
#466=ORIENTED_EDGE('',*,*,#465,.F.);
#468=ORIENTED_EDGE('',*,*,#467,.F.);
#469=EDGE_LOOP('',(#462,#464,#466,#468));
#470=FACE_BOUND('',#469,.F.);
#472=ORIENTED_EDGE('',*,*,#471,.F.);
#474=ORIENTED_EDGE('',*,*,#473,.F.);
#476=ORIENTED_EDGE('',*,*,#475,.F.);
#478=ORIENTED_EDGE('',*,*,#477,.F.);
#479=EDGE_LOOP('',(#472,#474,#476,#478));
#480=FACE_BOUND('',#479,.F.);
#481=ADVANCED_FACE('',(#460,#470,#480),#453,.T.);
#482=CARTESIAN_POINT('',(1.75E-1,6.8E-2,6.8E-2));
#483=DIRECTION('',(-1.E0,0.E0,0.E0));
#484=DIRECTION('',(0.E0,0.E0,1.E0));
#485=AXIS2_PLACEMENT_3D('',#482,#483,#484);
#486=CYLINDRICAL_SURFACE('',#485,6.8E-2);
#487=ORIENTED_EDGE('',*,*,#318,.F.);
#489=ORIENTED_EDGE('',*,*,#488,.T.);
#490=ORIENTED_EDGE('',*,*,#364,.T.);
#491=ORIENTED_EDGE('',*,*,#456,.F.);
#492=EDGE_LOOP('',(#487,#489,#490,#491));
#493=FACE_OUTER_BOUND('',#492,.F.);
#494=ADVANCED_FACE('',(#493),#486,.T.);
#495=CARTESIAN_POINT('',(1.75E-1,6.E-1,0.E0));
#496=DIRECTION('',(0.E0,0.E0,-1.E0));
#497=DIRECTION('',(0.E0,-1.E0,0.E0));
#498=AXIS2_PLACEMENT_3D('',#495,#496,#497);
#499=PLANE('',#498);
#500=ORIENTED_EDGE('',*,*,#340,.F.);
#501=ORIENTED_EDGE('',*,*,#366,.T.);
#502=ORIENTED_EDGE('',*,*,#488,.F.);
#503=ORIENTED_EDGE('',*,*,#316,.F.);
#504=EDGE_LOOP('',(#500,#501,#502,#503));
#505=FACE_OUTER_BOUND('',#504,.F.);
#507=ORIENTED_EDGE('',*,*,#506,.F.);
#509=ORIENTED_EDGE('',*,*,#508,.F.);
#510=EDGE_LOOP('',(#507,#509));
#511=FACE_BOUND('',#510,.F.);
#512=ADVANCED_FACE('',(#505,#511),#499,.T.);
#513=CARTESIAN_POINT('',(0.E0,4.E-1,4.8E-2));
#514=DIRECTION('',(0.E0,0.E0,1.E0));
#515=DIRECTION('',(1.E0,0.E0,0.E0));
#516=AXIS2_PLACEMENT_3D('',#513,#514,#515);
#517=CYLINDRICAL_SURFACE('',#516,8.25E-2);
#518=ORIENTED_EDGE('',*,*,#383,.F.);
#520=ORIENTED_EDGE('',*,*,#519,.T.);
#521=ORIENTED_EDGE('',*,*,#506,.T.);
#523=ORIENTED_EDGE('',*,*,#522,.F.);
#524=EDGE_LOOP('',(#518,#520,#521,#523));
#525=FACE_OUTER_BOUND('',#524,.F.);
#526=ADVANCED_FACE('',(#525),#517,.F.);
#527=CARTESIAN_POINT('',(0.E0,4.E-1,4.8E-2));
#528=DIRECTION('',(0.E0,0.E0,1.E0));
#529=DIRECTION('',(1.E0,0.E0,0.E0));
#530=AXIS2_PLACEMENT_3D('',#527,#528,#529);
#531=CYLINDRICAL_SURFACE('',#530,8.25E-2);
#532=ORIENTED_EDGE('',*,*,#385,.F.);
#533=ORIENTED_EDGE('',*,*,#522,.T.);
#534=ORIENTED_EDGE('',*,*,#508,.T.);
#535=ORIENTED_EDGE('',*,*,#519,.F.);
#536=EDGE_LOOP('',(#532,#533,#534,#535));
#537=FACE_OUTER_BOUND('',#536,.F.);
#538=ADVANCED_FACE('',(#537),#531,.F.);
#539=CARTESIAN_POINT('',(0.E0,4.8E-2,8.32E-1));
#540=DIRECTION('',(0.E0,1.E0,0.E0));
#541=DIRECTION('',(0.E0,0.E0,1.E0));
#542=AXIS2_PLACEMENT_3D('',#539,#540,#541);
#543=CYLINDRICAL_SURFACE('',#542,6.5E-2);
#544=ORIENTED_EDGE('',*,*,#461,.T.);
#546=ORIENTED_EDGE('',*,*,#545,.F.);
#547=ORIENTED_EDGE('',*,*,#415,.F.);
#549=ORIENTED_EDGE('',*,*,#548,.T.);
#550=EDGE_LOOP('',(#544,#546,#547,#549));
#551=FACE_OUTER_BOUND('',#550,.F.);
#552=ADVANCED_FACE('',(#551),#543,.F.);
#553=CARTESIAN_POINT('',(6.5E-2,4.8E-2,8.32E-1));
#554=DIRECTION('',(1.E0,0.E0,0.E0));
#555=DIRECTION('',(0.E0,0.E0,-1.E0));
#556=AXIS2_PLACEMENT_3D('',#553,#554,#555);
#557=PLANE('',#556);
#558=ORIENTED_EDGE('',*,*,#467,.T.);
#560=ORIENTED_EDGE('',*,*,#559,.F.);
#561=ORIENTED_EDGE('',*,*,#417,.F.);
#562=ORIENTED_EDGE('',*,*,#545,.T.);
#563=EDGE_LOOP('',(#558,#560,#561,#562));
#564=FACE_OUTER_BOUND('',#563,.F.);
#565=ADVANCED_FACE('',(#564),#557,.F.);
#566=CARTESIAN_POINT('',(0.E0,4.8E-2,7.72E-1));
#567=DIRECTION('',(0.E0,1.E0,0.E0));
#568=DIRECTION('',(0.E0,0.E0,1.E0));
#569=AXIS2_PLACEMENT_3D('',#566,#567,#568);
#570=CYLINDRICAL_SURFACE('',#569,6.5E-2);
#571=ORIENTED_EDGE('',*,*,#465,.T.);
#573=ORIENTED_EDGE('',*,*,#572,.F.);
#574=ORIENTED_EDGE('',*,*,#419,.F.);
#575=ORIENTED_EDGE('',*,*,#559,.T.);
#576=EDGE_LOOP('',(#571,#573,#574,#575));
#577=FACE_OUTER_BOUND('',#576,.F.);
#578=ADVANCED_FACE('',(#577),#570,.F.);
#579=CARTESIAN_POINT('',(-6.5E-2,4.8E-2,7.72E-1));
#580=DIRECTION('',(-1.E0,0.E0,0.E0));
#581=DIRECTION('',(0.E0,0.E0,1.E0));
#582=AXIS2_PLACEMENT_3D('',#579,#580,#581);
#583=PLANE('',#582);
#584=ORIENTED_EDGE('',*,*,#463,.T.);
#585=ORIENTED_EDGE('',*,*,#548,.F.);
#586=ORIENTED_EDGE('',*,*,#421,.F.);
#587=ORIENTED_EDGE('',*,*,#572,.T.);
#588=EDGE_LOOP('',(#584,#585,#586,#587));
#589=FACE_OUTER_BOUND('',#588,.F.);
#590=ADVANCED_FACE('',(#589),#583,.F.);
#591=CARTESIAN_POINT('',(0.E0,4.8E-2,3.6E-1));
#592=DIRECTION('',(0.E0,1.E0,0.E0));
#593=DIRECTION('',(0.E0,0.E0,1.E0));
#594=AXIS2_PLACEMENT_3D('',#591,#592,#593);
#595=CYLINDRICAL_SURFACE('',#594,6.5E-2);
#596=ORIENTED_EDGE('',*,*,#471,.T.);
#598=ORIENTED_EDGE('',*,*,#597,.F.);
#599=ORIENTED_EDGE('',*,*,#425,.F.);
#601=ORIENTED_EDGE('',*,*,#600,.T.);
#602=EDGE_LOOP('',(#596,#598,#599,#601));
#603=FACE_OUTER_BOUND('',#602,.F.);
#604=ADVANCED_FACE('',(#603),#595,.F.);
#605=CARTESIAN_POINT('',(6.5E-2,4.8E-2,3.6E-1));
#606=DIRECTION('',(1.E0,0.E0,0.E0));
#607=DIRECTION('',(0.E0,0.E0,-1.E0));
#608=AXIS2_PLACEMENT_3D('',#605,#606,#607);
#609=PLANE('',#608);
#610=ORIENTED_EDGE('',*,*,#477,.T.);
#612=ORIENTED_EDGE('',*,*,#611,.F.);
#613=ORIENTED_EDGE('',*,*,#427,.F.);
#614=ORIENTED_EDGE('',*,*,#597,.T.);
#615=EDGE_LOOP('',(#610,#612,#613,#614));
#616=FACE_OUTER_BOUND('',#615,.F.);
#617=ADVANCED_FACE('',(#616),#609,.F.);
#618=CARTESIAN_POINT('',(0.E0,4.8E-2,3.E-1));
#619=DIRECTION('',(0.E0,1.E0,0.E0));
#620=DIRECTION('',(0.E0,0.E0,1.E0));
#621=AXIS2_PLACEMENT_3D('',#618,#619,#620);
#622=CYLINDRICAL_SURFACE('',#621,6.5E-2);
#623=ORIENTED_EDGE('',*,*,#475,.T.);
#625=ORIENTED_EDGE('',*,*,#624,.F.);
#626=ORIENTED_EDGE('',*,*,#429,.F.);
#627=ORIENTED_EDGE('',*,*,#611,.T.);
#628=EDGE_LOOP('',(#623,#625,#626,#627));
#629=FACE_OUTER_BOUND('',#628,.F.);
#630=ADVANCED_FACE('',(#629),#622,.F.);
#631=CARTESIAN_POINT('',(-6.5E-2,4.8E-2,3.E-1));
#632=DIRECTION('',(-1.E0,0.E0,0.E0));
#633=DIRECTION('',(0.E0,0.E0,1.E0));
#634=AXIS2_PLACEMENT_3D('',#631,#632,#633);
#635=PLANE('',#634);
#636=ORIENTED_EDGE('',*,*,#473,.T.);
#637=ORIENTED_EDGE('',*,*,#600,.F.);
#638=ORIENTED_EDGE('',*,*,#431,.F.);
#639=ORIENTED_EDGE('',*,*,#624,.T.);
#640=EDGE_LOOP('',(#636,#637,#638,#639));
#641=FACE_OUTER_BOUND('',#640,.F.);
#642=ADVANCED_FACE('',(#641),#635,.F.);
#643=CLOSED_SHELL('',(#332,#347,#370,#389,#402,#435,#448,#481,#494,#512,#526,
#538,#552,#565,#578,#590,#604,#617,#630,#642));
#644=MANIFOLD_SOLID_BREP('',#643);
#645=DIMENSIONAL_EXPONENTS(1.E0,0.E0,0.E0,0.E0,0.E0,0.E0,0.E0);
#646=(LENGTH_UNIT()NAMED_UNIT(*)SI_UNIT(.MILLI.,.METRE.));
#647=LENGTH_MEASURE_WITH_UNIT(LENGTH_MEASURE(2.54E1),#646);
#648=(CONVERSION_BASED_UNIT('INCH',#647)LENGTH_UNIT()NAMED_UNIT(#645));
#649=DIMENSIONAL_EXPONENTS(0.E0,0.E0,0.E0,0.E0,0.E0,0.E0,0.E0);
#650=(NAMED_UNIT(*)PLANE_ANGLE_UNIT()SI_UNIT($,.RADIAN.));
#651=PLANE_ANGLE_MEASURE_WITH_UNIT(PLANE_ANGLE_MEASURE(1.745329251994E-2),#650);
#652=(CONVERSION_BASED_UNIT('DEGREE',#651)NAMED_UNIT(#649)PLANE_ANGLE_UNIT());
#653=(NAMED_UNIT(*)SI_UNIT($,.STERADIAN.)SOLID_ANGLE_UNIT());
#654=UNCERTAINTY_MEASURE_WITH_UNIT(LENGTH_MEASURE(1.217755579266E-4),#648,
'closure',
'Maximum model space distance between geometric entities at asserted connectivities');
#655=(GEOMETRIC_REPRESENTATION_CONTEXT(3)GLOBAL_UNCERTAINTY_ASSIGNED_CONTEXT((
#654))GLOBAL_UNIT_ASSIGNED_CONTEXT((#648,#652,#653))REPRESENTATION_CONTEXT
('ID1','3'));
#657=APPLICATION_CONTEXT(
'CONFIGURATION CONTROLLED 3D DESIGNS OF MECHANICAL PARTS AND ASSEMBLIES');
#658=APPLICATION_PROTOCOL_DEFINITION('international standard',
'config_control_design',1994,#657);
#659=DESIGN_CONTEXT('',#657,'design');
#660=MECHANICAL_CONTEXT('',#657,'mechanical');
#661=PRODUCT('141801_SW','141801_SW','NOT SPECIFIED',(#660));
#662=PRODUCT_DEFINITION_FORMATION_WITH_SPECIFIED_SOURCE('','LAST_VERSION',#661,
.MADE.);
#666=PRODUCT_CATEGORY('part','');
#667=PRODUCT_RELATED_PRODUCT_CATEGORY('detail','',(#661));
#668=PRODUCT_CATEGORY_RELATIONSHIP('','',#666,#667);
#669=SECURITY_CLASSIFICATION_LEVEL('unclassified');
#670=SECURITY_CLASSIFICATION('','',#669);
#671=CC_DESIGN_SECURITY_CLASSIFICATION(#670,(#662));
#672=APPROVAL_STATUS('approved');
#673=APPROVAL(#672,'');
#674=CC_DESIGN_APPROVAL(#673,(#670,#662,#663));
#675=CALENDAR_DATE(108,15,8);
#676=COORDINATED_UNIVERSAL_TIME_OFFSET(4,0,.BEHIND.);
#677=LOCAL_TIME(7,8,4.E1,#676);
#678=DATE_AND_TIME(#675,#677);
#679=APPROVAL_DATE_TIME(#678,#673);
#680=DATE_TIME_ROLE('creation_date');
#681=CC_DESIGN_DATE_AND_TIME_ASSIGNMENT(#678,#680,(#663));
#682=DATE_TIME_ROLE('classification_date');
#683=CC_DESIGN_DATE_AND_TIME_ASSIGNMENT(#678,#682,(#670));
#684=PERSON('UNSPECIFIED','UNSPECIFIED',$,$,$,$);
#685=ORGANIZATION('UNSPECIFIED','UNSPECIFIED','UNSPECIFIED');
#686=PERSON_AND_ORGANIZATION(#684,#685);
#687=APPROVAL_ROLE('approver');
#688=APPROVAL_PERSON_ORGANIZATION(#686,#673,#687);
#689=PERSON_AND_ORGANIZATION_ROLE('creator');
#690=CC_DESIGN_PERSON_AND_ORGANIZATION_ASSIGNMENT(#686,#689,(#662,#663));
#691=PERSON_AND_ORGANIZATION_ROLE('design_supplier');
#692=CC_DESIGN_PERSON_AND_ORGANIZATION_ASSIGNMENT(#686,#691,(#662));
#693=PERSON_AND_ORGANIZATION_ROLE('classification_officer');
#694=CC_DESIGN_PERSON_AND_ORGANIZATION_ASSIGNMENT(#686,#693,(#670));
#695=PERSON_AND_ORGANIZATION_ROLE('design_owner');
#696=CC_DESIGN_PERSON_AND_ORGANIZATION_ASSIGNMENT(#686,#695,(#661));
#9=CIRCLE('',#8,6.8E-2);
#22=CIRCLE('',#21,2.E-2);
#35=CIRCLE('',#34,1.75E-1);
#44=CIRCLE('',#43,1.75E-1);
#53=CIRCLE('',#52,2.E-2);
#66=CIRCLE('',#65,6.8E-2);
#79=CIRCLE('',#78,8.25E-2);
#84=CIRCLE('',#83,8.25E-2);
#93=CIRCLE('',#92,6.5E-2);
#102=CIRCLE('',#101,6.5E-2);
#111=CIRCLE('',#110,6.5E-2);
#120=CIRCLE('',#119,6.5E-2);
#133=CIRCLE('',#132,1.75E-1);
#142=CIRCLE('',#141,1.75E-1);
#151=CIRCLE('',#150,6.5E-2);
#160=CIRCLE('',#159,6.5E-2);
#169=CIRCLE('',#168,6.5E-2);
#178=CIRCLE('',#177,6.5E-2);
#191=CIRCLE('',#190,8.25E-2);
#196=CIRCLE('',#195,8.25E-2);
#314=EDGE_CURVE('',#306,#308,#39,.T.);
#316=EDGE_CURVE('',#306,#243,#4,.T.);
#318=EDGE_CURVE('',#243,#244,#9,.T.);
#320=EDGE_CURVE('',#244,#300,#13,.T.);
#322=EDGE_CURVE('',#298,#300,#137,.T.);
#324=EDGE_CURVE('',#298,#239,#17,.T.);
#326=EDGE_CURVE('',#239,#240,#22,.T.);
#328=EDGE_CURVE('',#240,#308,#26,.T.);
#338=EDGE_CURVE('',#303,#304,#30,.T.);
#340=EDGE_CURVE('',#303,#306,#35,.T.);
#343=EDGE_CURVE('',#308,#304,#44,.T.);
#354=EDGE_CURVE('',#248,#304,#48,.T.);
#356=EDGE_CURVE('',#247,#248,#53,.T.);
#358=EDGE_CURVE('',#295,#247,#57,.T.);
#360=EDGE_CURVE('',#295,#296,#128,.T.);
#362=EDGE_CURVE('',#252,#296,#61,.T.);
#364=EDGE_CURVE('',#251,#252,#66,.T.);
#366=EDGE_CURVE('',#303,#251,#70,.T.);
#378=EDGE_CURVE('',#240,#248,#74,.T.);
#383=EDGE_CURVE('',#287,#288,#79,.T.);
#385=EDGE_CURVE('',#288,#287,#84,.T.);
#396=EDGE_CURVE('',#239,#247,#88,.T.);
#408=EDGE_CURVE('',#295,#298,#133,.T.);
#415=EDGE_CURVE('',#271,#272,#93,.T.);
#417=EDGE_CURVE('',#272,#274,#97,.T.);
#419=EDGE_CURVE('',#274,#276,#102,.T.);
#421=EDGE_CURVE('',#276,#271,#106,.T.);
#425=EDGE_CURVE('',#279,#280,#111,.T.);
#427=EDGE_CURVE('',#280,#282,#115,.T.);
#429=EDGE_CURVE('',#282,#284,#120,.T.);
#431=EDGE_CURVE('',#284,#279,#124,.T.);
#444=EDGE_CURVE('',#300,#296,#142,.T.);
#456=EDGE_CURVE('',#244,#252,#146,.T.);
#461=EDGE_CURVE('',#255,#256,#151,.T.);
#463=EDGE_CURVE('',#260,#255,#155,.T.);
#465=EDGE_CURVE('',#258,#260,#160,.T.);
#467=EDGE_CURVE('',#256,#258,#164,.T.);
#471=EDGE_CURVE('',#263,#264,#169,.T.);
#473=EDGE_CURVE('',#268,#263,#173,.T.);
#475=EDGE_CURVE('',#266,#268,#178,.T.);
#477=EDGE_CURVE('',#264,#266,#182,.T.);
#488=EDGE_CURVE('',#243,#251,#186,.T.);
#506=EDGE_CURVE('',#291,#292,#191,.T.);
#508=EDGE_CURVE('',#292,#291,#196,.T.);
#519=EDGE_CURVE('',#287,#291,#200,.T.);
#522=EDGE_CURVE('',#288,#292,#204,.T.);
#545=EDGE_CURVE('',#272,#256,#212,.T.);
#548=EDGE_CURVE('',#271,#255,#208,.T.);
#559=EDGE_CURVE('',#274,#258,#216,.T.);
#572=EDGE_CURVE('',#276,#260,#220,.T.);
#597=EDGE_CURVE('',#280,#264,#228,.T.);
#600=EDGE_CURVE('',#279,#263,#224,.T.);
#611=EDGE_CURVE('',#282,#266,#232,.T.);
#624=EDGE_CURVE('',#284,#268,#236,.T.);
#656=ADVANCED_BREP_SHAPE_REPRESENTATION('',(#644),#655);
#663=PRODUCT_DEFINITION('design','',#662,#659);
#664=PRODUCT_DEFINITION_SHAPE('','SHAPE FOR 141801_SW.',#663);
#665=SHAPE_DEFINITION_REPRESENTATION(#664,#656);
ENDSEC;
END-ISO-10303-21;
